  0
SECTION
  2
HEADER
  9
$ACADVER
  1
AC1015
  9
$ACADMAINTVER
 70
     6
  9
$DWGCODEPAGE
  3
ANSI_1254
  9
$INSBASE
 10
0.0
 20
0.0
 30
0.0
  9
$EXTMIN
 10
0.0
 20
0.0
 30
0.0
  9
$EXTMAX
 10
279.4
 20
215.9
 30
0.0
  9
$LIMMIN
 10
0.0
 20
0.0
  9
$LIMMAX
 10
279.4
 20
215.9
  9
$ORTHOMODE
 70
     0
  9
$REGENMODE
 70
     1
  9
$FILLMODE
 70
     1
  9
$QTEXTMODE
 70
     0
  9
$MIRRTEXT
 70
     1
  9
$LTSCALE
 40
1.0
  9
$ATTMODE
 70
     1
  9
$TEXTSIZE
 40
3.5
  9
$TRACEWID
 40
1.0
  9
$TEXTSTYLE
  7
Standard
  9
$CLAYER
  8
0
  9
$CELTYPE
  6
ByLayer
  9
$CECOLOR
 62
   256
  9
$CELTSCALE
 40
1.0
  9
$DISPSILH
 70
     0
  9
$DIMSCALE
 40
1.0
  9
$DIMASZ
 40
3.5
  9
$DIMEXO
 40
1.0
  9
$DIMDLI
 40
3.75
  9
$DIMRND
 40
0.0
  9
$DIMDLE
 40
0.0
  9
$DIMEXE
 40
1.0
  9
$DIMTP
 40
0.0
  9
$DIMTM
 40
0.0
  9
$DIMTXT
 40
3.5
  9
$DIMCEN
 40
2.5
  9
$DIMTSZ
 40
0.0
  9
$DIMTOL
 70
     0
  9
$DIMLIM
 70
     0
  9
$DIMTIH
 70
     1
  9
$DIMTOH
 70
     1
  9
$DIMSE1
 70
     0
  9
$DIMSE2
 70
     0
  9
$DIMTAD
 70
     1
  9
$DIMZIN
 70
     0
  9
$DIMBLK
  1

  9
$DIMASO
 70
     1
  9
$DIMSHO
 70
     1
  9
$DIMPOST
  1

  9
$DIMAPOST
  1

  9
$DIMALT
 70
     0
  9
$DIMALTD
 70
     3
  9
$DIMALTF
 40
0.0393700787
  9
$DIMLFAC
 40
1.0
  9
$DIMTOFL
 70
     1
  9
$DIMTVP
 40
0.0
  9
$DIMTIX
 70
     0
  9
$DIMSOXD
 70
     0
  9
$DIMSAH
 70
     0
  9
$DIMBLK1
  1

  9
$DIMBLK2
  1

  9
$DIMSTYLE
  2
ISO-25
  9
$DIMCLRD
 70
     0
  9
$DIMCLRE
 70
     0
  9
$DIMCLRT
 70
     0
  9
$DIMTFAC
 40
1.0
  9
$DIMGAP
 40
1.524
  9
$DIMJUST
 70
     0
  9
$DIMSD1
 70
     0
  9
$DIMSD2
 70
     0
  9
$DIMTOLJ
 70
     0
  9
$DIMTZIN
 70
     0
  9
$DIMALTZ
 70
     0
  9
$DIMALTTZ
 70
     0
  9
$DIMUPT
 70
     0
  9
$DIMDEC
 70
     2
  9
$DIMTDEC
 70
     2
  9
$DIMALTU
 70
     2
  9
$DIMALTTD
 70
     3
  9
$DIMTXSTY
  7
Standard
  9
$DIMAUNIT
 70
     0
  9
$DIMADEC
 70
     2
  9
$DIMALTRND
 40
0.0
  9
$DIMAZIN
 70
     0
  9
$DIMDSEP
 70
    44
  9
$DIMATFIT
 70
     3
  9
$DIMFRAC
 70
     0
  9
$DIMLDRBLK
  1

  9
$DIMLUNIT
 70
     2
  9
$DIMLWD
 70
    -2
  9
$DIMLWE
 70
    -2
  9
$DIMTMOVE
 70
     0
  9
$LUNITS
 70
     2
  9
$LUPREC
 70
     2
  9
$SKETCHINC
 40
1.0
  9
$FILLETRAD
 40
10.0
  9
$AUNITS
 70
     0
  9
$AUPREC
 70
     2
  9
$MENU
  1
.
  9
$ELEVATION
 40
0.0
  9
$PELEVATION
 40
0.0
  9
$THICKNESS
 40
0.0
  9
$LIMCHECK
 70
     0
  9
$CHAMFERA
 40
0.0
  9
$CHAMFERB
 40
0.0
  9
$CHAMFERC
 40
0.0
  9
$CHAMFERD
 40
0.0
  9
$SKPOLY
 70
     0
  9
$TDCREATE
 40
2459741.606186192
  9
$TDUCREATE
 40
2459741.481186192
  9
$TDUPDATE
 40
2459741.606186366
  9
$TDUUPDATE
 40
2459741.481186366
  9
$TDINDWG
 40
0.0000000116
  9
$TDUSRTIMER
 40
0.0000000116
  9
$USRTIMER
 70
     1
  9
$ANGBASE
 50
0.0
  9
$ANGDIR
 70
     0
  9
$PDMODE
 70
     0
  9
$PDSIZE
 40
-1.0
  9
$PLINEWID
 40
0.0
  9
$SPLFRAME
 70
     0
  9
$SPLINETYPE
 70
     6
  9
$SPLINESEGS
 70
     8
  9
$HANDSEED
  5
102
  9
$SURFTAB1
 70
     6
  9
$SURFTAB2
 70
     6
  9
$SURFTYPE
 70
     6
  9
$SURFU
 70
     6
  9
$SURFV
 70
     6
  9
$UCSBASE
  2

  9
$UCSNAME
  2

  9
$UCSORG
 10
0.0
 20
0.0
 30
0.0
  9
$UCSXDIR
 10
1.0
 20
0.0
 30
0.0
  9
$UCSYDIR
 10
0.0
 20
1.0
 30
0.0
  9
$UCSORTHOREF
  2

  9
$UCSORTHOVIEW
 70
     0
  9
$UCSORGTOP
 10
0.0
 20
0.0
 30
0.0
  9
$UCSORGBOTTOM
 10
0.0
 20
0.0
 30
0.0
  9
$UCSORGLEFT
 10
0.0
 20
0.0
 30
0.0
  9
$UCSORGRIGHT
 10
0.0
 20
0.0
 30
0.0
  9
$UCSORGFRONT
 10
0.0
 20
0.0
 30
0.0
  9
$UCSORGBACK
 10
0.0
 20
0.0
 30
0.0
  9
$PUCSBASE
  2

  9
$PUCSNAME
  2

  9
$PUCSORG
 10
0.0
 20
0.0
 30
0.0
  9
$PUCSXDIR
 10
1.0
 20
0.0
 30
0.0
  9
$PUCSYDIR
 10
0.0
 20
1.0
 30
0.0
  9
$PUCSORTHOREF
  2

  9
$PUCSORTHOVIEW
 70
     0
  9
$PUCSORGTOP
 10
0.0
 20
0.0
 30
0.0
  9
$PUCSORGBOTTOM
 10
0.0
 20
0.0
 30
0.0
  9
$PUCSORGLEFT
 10
0.0
 20
0.0
 30
0.0
  9
$PUCSORGRIGHT
 10
0.0
 20
0.0
 30
0.0
  9
$PUCSORGFRONT
 10
0.0
 20
0.0
 30
0.0
  9
$PUCSORGBACK
 10
0.0
 20
0.0
 30
0.0
  9
$USERI1
 70
     0
  9
$USERI2
 70
     0
  9
$USERI3
 70
     0
  9
$USERI4
 70
     0
  9
$USERI5
 70
     0
  9
$USERR1
 40
0.0
  9
$USERR2
 40
0.0
  9
$USERR3
 40
0.0
  9
$USERR4
 40
0.0
  9
$USERR5
 40
0.0
  9
$WORLDVIEW
 70
     1
  9
$SHADEDGE
 70
     3
  9
$SHADEDIF
 70
    70
  9
$TILEMODE
 70
     1
  9
$MAXACTVP
 70
    64
  9
$PINSBASE
 10
0.0
 20
0.0
 30
0.0
  9
$PLIMCHECK
 70
     0
  9
$PEXTMIN
 10
1.0000000000E+20
 20
1.0000000000E+20
 30
1.0000000000E+20
  9
$PEXTMAX
 10
-1.0000000000E+20
 20
-1.0000000000E+20
 30
-1.0000000000E+20
  9
$PLIMMIN
 10
0.0
 20
0.0
  9
$PLIMMAX
 10
420.0
 20
297.0
  9
$UNITMODE
 70
     0
  9
$VISRETAIN
 70
     1
  9
$PLINEGEN
 70
     0
  9
$PSLTSCALE
 70
     1
  9
$TREEDEPTH
 70
  3020
  9
$CMLSTYLE
  2
Standard
  9
$CMLJUST
 70
     0
  9
$CMLSCALE
 40
20.0
  9
$PROXYGRAPHICS
 70
     1
  9
$MEASUREMENT
 70
     1
  9
$CELWEIGHT
370
    -1
  9
$ENDCAPS
280
     0
  9
$JOINSTYLE
280
     0
  9
$LWDISPLAY
290
     1
  9
$INSUNITS
 70
     4
  9
$HYPERLINKBASE
  1

  9
$STYLESHEET
  1

  9
$XEDIT
290
     1
  9
$CEPSNTYPE
380
     0
  9
$PSTYLEMODE
290
     1
  9
$FINGERPRINTGUID
  2
{82c898c9-2c96-4b60-ac28-68e13c4a01dd}
  9
$VERSIONGUID
  2
{FAEB1C32-E019-11D5-929B-00C0DF256EC4}
  9
$EXTNAMES
290
     1
  9
$PSVPSCALE
 40
0.0
  9
$OLESTARTUP
290
     0
  0
ENDSEC
  0
SECTION
  2
CLASSES
  0
CLASS
  1
ACDBDICTIONARYWDFLT
  2
AcDbDictionaryWithDefault
  3
ObjectDBX Classes
 90
        0
280
     0
281
     0
  0
CLASS
  1
VISUALSTYLE
  2
AcDbVisualStyle
  3
ObjectDBX Classes
 90
     4095
280
     0
281
     0
  0
CLASS
  1
MATERIAL
  2
AcDbMaterial
  3
ObjectDBX Classes
 90
     1153
280
     0
281
     0
  0
CLASS
  1
SCALE
  2
AcDbScale
  3
ObjectDBX Classes
 90
     1153
280
     0
281
     0
  0
CLASS
  1
TABLESTYLE
  2
AcDbTableStyle
  3
ObjectDBX Classes
 90
     4095
280
     0
281
     0
  0
CLASS
  1
MLEADERSTYLE
  2
AcDbMLeaderStyle
  3
ACDB_MLEADERSTYLE_CLASS
 90
     4095
280
     0
281
     0
  0
CLASS
  1
SUN
  2
AcDbSun
  3
SCENEOE
 90
     1153
280
     0
281
     0
  0
CLASS
  1
ACDBPLACEHOLDER
  2
AcDbPlaceHolder
  3
ObjectDBX Classes
 90
        0
280
     0
281
     0
  0
CLASS
  1
LAYOUT
  2
AcDbLayout
  3
ObjectDBX Classes
 90
        0
280
     0
281
     0
  0
ENDSEC
  0
SECTION
  2
TABLES
  0
TABLE
  2
VPORT
  5
8
330
0
100
AcDbSymbolTable
 70
     1
  0
VPORT
  5
29
330
8
100
AcDbSymbolTableRecord
100
AcDbViewportTableRecord
  2
*Active
 70
     0
 10
0.0
 20
0.0
 11
1.0
 21
1.0
 12
139.7
 22
107.95
 13
0.0
 23
0.0
 14
10.0
 24
10.0
 15
10.0
 25
10.0
 16
0.0
 26
0.0
 36
1.0
 17
0.0
 27
0.0
 37
0.0
 40
215.9
 41
1.2941176471
 42
50.0
 43
0.0
 44
0.0
 50
0.0
 51
0.0
 71
     0
 72
  2000
 73
     1
 74
     3
 75
     0
 76
     0
 77
     0
 78
     0
281
     0
 65
     1
110
0.0
120
0.0
130
0.0
111
1.0
121
0.0
131
0.0
112
0.0
122
1.0
132
0.0
 79
     0
146
0.0
  0
ENDTAB
  0
TABLE
  2
LTYPE
  5
5
330
0
100
AcDbSymbolTable
 70
     6
  0
LTYPE
  5
14
330
5
100
AcDbSymbolTableRecord
100
AcDbLinetypeTableRecord
  2
ByBlock
 70
     0
  3

 72
    65
 73
     0
 40
0.0
  0
LTYPE
  5
15
330
5
100
AcDbSymbolTableRecord
100
AcDbLinetypeTableRecord
  2
ByLayer
 70
     0
  3

 72
    65
 73
     0
 40
0.0
  0
LTYPE
  5
16
330
5
100
AcDbSymbolTableRecord
100
AcDbLinetypeTableRecord
  2
Continuous
 70
     0
  3
Solid line
 72
    65
 73
     0
 40
0.0
  0
LTYPE
  5
6E
330
5
100
AcDbSymbolTableRecord
100
AcDbLinetypeTableRecord
  2
HIDDEN
 70
     0
  3
Hidden __ __ __ __ __ __ __ __ __ __ __ __ __ __
 72
    65
 73
     2
 40
1.905
 49
1.27
 74
     0
 49
-0.635
 74
     0
  0
LTYPE
  5
6F
330
5
100
AcDbSymbolTableRecord
100
AcDbLinetypeTableRecord
  2
PHANTOM
 70
     0
  3
Phantom ______  __  __  ______  __  __  ______
 72
    65
 73
     6
 40
12.7
 49
6.35
 74
     0
 49
-1.27
 74
     0
 49
1.27
 74
     0
 49
-1.27
 74
     0
 49
1.27
 74
     0
 49
-1.27
 74
     0
  0
LTYPE
  5
70
330
5
100
AcDbSymbolTableRecord
100
AcDbLinetypeTableRecord
  2
CENTER
 70
     0
  3
Center ____ _ ____ _ ____ _ ____ _ ____ _ ____
 72
    65
 73
     4
 40
10.16
 49
6.35
 74
     0
 49
-1.27
 74
     0
 49
1.27
 74
     0
 49
-1.27
 74
     0
  0
LTYPE
  5
71
330
5
100
AcDbSymbolTableRecord
100
AcDbLinetypeTableRecord
  2
CENTERX2
 70
     0
  3
Center (2x) ________  __  ________  __  _____
 72
    65
 73
     4
 40
20.32
 49
12.7
 74
     0
 49
-2.54
 74
     0
 49
2.54
 74
     0
 49
-2.54
 74
     0
  0
LTYPE
  5
72
330
5
100
AcDbSymbolTableRecord
100
AcDbLinetypeTableRecord
  2
DOT2
 70
     0
  3
Dot (.5x) ........................................
 72
    65
 73
     2
 40
0.635
 49
0.0
 74
     0
 49
-0.635
 74
     0
  0
ENDTAB
  0
TABLE
  2
LAYER
  5
2
330
0
100
AcDbSymbolTable
 70
    17
  0
LAYER
  5
10
330
2
100
AcDbSymbolTableRecord
100
AcDbLayerTableRecord
  2
0
 70
     0
 62
     7
  6
Continuous
370
    -3
390
F
  0
LAYER
  5
73
330
2
100
AcDbSymbolTableRecord
100
AcDbLayerTableRecord
  2
FORMAT
 70
     0
 62
     7
  6
Continuous
370
    -3
390
F
  0
LAYER
  5
74
330
2
100
AcDbSymbolTableRecord
100
AcDbLayerTableRecord
  2
YARDIMCI_GEOMETRI
 70
     0
 62
    -6
  6
Continuous
290
     0
370
    -3
390
F
  0
LAYER
  5
75
330
2
100
AcDbSymbolTableRecord
100
AcDbLayerTableRecord
  2
SAYFA_CERCEVESI
 70
     0
 62
     7
  6
Continuous
370
    25
390
F
  0
LAYER
  5
76
330
2
100
AcDbSymbolTableRecord
100
AcDbLayerTableRecord
  2
ANTET
 70
     0
 62
     7
  6
Continuous
370
    -3
390
F
  0
LAYER
  5
77
330
2
100
AcDbSymbolTableRecord
100
AcDbLayerTableRecord
  2
OLCU
 70
     0
 62
   150
  6
Continuous
370
    -3
390
F
  0
LAYER
  5
78
330
2
100
AcDbSymbolTableRecord
100
AcDbLayerTableRecord
  2
METIN
 70
     0
 62
    96
  6
Continuous
370
    -3
390
F
  0
LAYER
  5
79
330
2
100
AcDbSymbolTableRecord
100
AcDbLayerTableRecord
  2
BALON
 70
     0
 62
     5
  6
Continuous
370
    -3
390
F
  0
LAYER
  5
7A
330
2
100
AcDbSymbolTableRecord
100
AcDbLayerTableRecord
  2
VURGU
 70
     0
 62
     7
  6
Continuous
370
    -3
390
F
  0
LAYER
  5
7B
330
2
100
AcDbSymbolTableRecord
100
AcDbLayerTableRecord
  2
SILIK
 70
     0
 62
     7
  6
Continuous
370
    -3
390
F
  0
LAYER
  5
7C
330
2
100
AcDbSymbolTableRecord
100
AcDbLayerTableRecord
  2
MODEL
 70
     0
 62
     7
  6
Continuous
370
    -3
390
F
  0
LAYER
  5
7D
330
2
100
AcDbSymbolTableRecord
100
AcDbLayerTableRecord
  2
DETAYLANDıRMA
 70
     0
 62
   190
  6
Continuous
370
    -3
390
F
  0
LAYER
  5
7E
330
2
100
AcDbSymbolTableRecord
100
AcDbLayerTableRecord
  2
TOLERANS
 70
     0
 62
   230
  6
Continuous
370
    -3
390
F
  0
LAYER
  5
7F
330
2
100
AcDbSymbolTableRecord
100
AcDbLayerTableRecord
  2
MERKEZ_CIZGILERI
 70
     0
 62
    30
  6
Continuous
370
    -3
390
F
  0
LAYER
  5
80
330
2
100
AcDbSymbolTableRecord
100
AcDbLayerTableRecord
  2
KESIT-DETAY_CIZGILERI
 70
     0
 62
     7
  6
Continuous
370
    -3
390
F
  0
LAYER
  5
81
330
2
100
AcDbSymbolTableRecord
100
AcDbLayerTableRecord
  2
\U+041E\U+0421\U+0415\U+0412\U+042B\U+0415
 70
     0
 62
     7
  6
Continuous
370
    -3
390
F
  0
LAYER
  5
82
330
2
100
AcDbSymbolTableRecord
100
AcDbLayerTableRecord
  2
\U+0412\U+041E\U+0414\U+042F\U+041D\U+042B\U+0415_\U+0417\U+041D\U+0410\U+041A\U+0418
 70
     0
 62
    11
  6
Continuous
370
    -3
390
F
  0
ENDTAB
  0
TABLE
  2
STYLE
  5
3
330
0
100
AcDbSymbolTable
 70
     1
  0
STYLE
  5
11
330
3
100
AcDbSymbolTableRecord
100
AcDbTextStyleTableRecord
  2
Standard
 70
     0
 40
0.0
 41
1.0
 50
0.0
 71
     0
 42
3.5
  3
txt
  4

  0
ENDTAB
  0
TABLE
  2
VIEW
  5
6
330
0
100
AcDbSymbolTable
 70
     0
  0
ENDTAB
  0
TABLE
  2
UCS
  5
7
330
0
100
AcDbSymbolTable
 70
     0
  0
ENDTAB
  0
TABLE
  2
APPID
  5
9
330
0
100
AcDbSymbolTable
 70
     1
  0
APPID
  5
12
330
9
100
AcDbSymbolTableRecord
100
AcDbRegAppTableRecord
  2
ACAD
 70
     0
  0
ENDTAB
  0
TABLE
  2
DIMSTYLE
  5
A
330
0
100
AcDbSymbolTable
 70
     1
100
AcDbDimStyleTable
  0
DIMSTYLE
105
27
330
A
100
AcDbSymbolTableRecord
100
AcDbDimStyleTableRecord
  2
ISO-25
 70
     0
 41
2.5
 42
0.625
 43
3.75
 44
1.25
 73
     0
 74
     0
 77
     1
 78
     8
140
2.5
141
2.5
143
0.0393700787
147
0.625
171
     3
172
     1
178
     0
271
     2
272
     2
274
     3
278
    44
283
     0
284
     8
340
11
  0
ENDTAB
  0
TABLE
  2
BLOCK_RECORD
  5
1
330
0
100
AcDbSymbolTable
 70
     5
  0
BLOCK_RECORD
  5
1F
330
1
100
AcDbSymbolTableRecord
100
AcDbBlockTableRecord
  2
*Model_Space
340
22
  0
BLOCK_RECORD
  5
1B
330
1
100
AcDbSymbolTableRecord
100
AcDbBlockTableRecord
  2
*Paper_Space
340
1E
  0
BLOCK_RECORD
  5
23
330
1
100
AcDbSymbolTableRecord
100
AcDbBlockTableRecord
  2
*Paper_Space0
340
26
  0
BLOCK_RECORD
  5
8B
330
1
100
AcDbSymbolTableRecord
100
AcDbBlockTableRecord
  2
SW_CENTERMARKSYMBOL_0
340
0
102
{BLKREFS
331
96
102
}
  0
BLOCK_RECORD
  5
A9
330
1
100
AcDbSymbolTableRecord
100
AcDbBlockTableRecord
  2
SW_CENTERMARKSYMBOL_1
340
0
102
{BLKREFS
331
B4
102
}
  0
BLOCK_RECORD
  5
D9
330
1
100
AcDbSymbolTableRecord
100
AcDbBlockTableRecord
  2
SW_CENTERMARKSYMBOL_2
340
0
102
{BLKREFS
331
E4
102
}
  0
BLOCK_RECORD
  5
E5
330
1
100
AcDbSymbolTableRecord
100
AcDbBlockTableRecord
  2
SW_CENTERMARKSYMBOL_3
340
0
102
{BLKREFS
331
F0
102
}
  0
ENDTAB
  0
ENDSEC
  0
SECTION
  2
BLOCKS
  0
BLOCK
  5
20
330
1F
100
AcDbEntity
  8
0
100
AcDbBlockBegin
  2
*Model_Space
 70
     0
 10
0.0
 20
0.0
 30
0.0
  3
*Model_Space
  1

  0
ENDBLK
  5
21
330
1F
100
AcDbEntity
  8
0
100
AcDbBlockEnd
  0
BLOCK
  5
1C
330
1B
100
AcDbEntity
 67
     1
  8
0
100
AcDbBlockBegin
  2
*Paper_Space
 70
     0
 10
0.0
 20
0.0
 30
0.0
  3
*Paper_Space
  1

  0
ENDBLK
  5
1D
330
1B
100
AcDbEntity
 67
     1
  8
0
100
AcDbBlockEnd
  0
BLOCK
  5
24
330
23
100
AcDbEntity
  8
0
100
AcDbBlockBegin
  2
*Paper_Space0
 70
     0
 10
0.0
 20
0.0
 30
0.0
  3
*Paper_Space0
  1

  0
ENDBLK
  5
25
330
23
100
AcDbEntity
  8
0
100
AcDbBlockEnd
  0
BLOCK
  5
8C
330
8B
100
AcDbEntity
  8
0
100
AcDbBlockBegin
  2
SW_CENTERMARKSYMBOL_0
 70
     0
 10
0.0
 20
0.0
 30
0.0
  3
SW_CENTERMARKSYMBOL_0
  1

  0
LINE
  5
8E
330
8B
100
AcDbEntity
  8
FORMAT
 62
     0
100
AcDbLine
 10
0.0
 20
0.0
 30
0.0
 11
0.0
 21
2.5
 31
0.0
  0
LINE
  5
8F
330
8B
100
AcDbEntity
  8
FORMAT
 62
     0
100
AcDbLine
 10
0.0
 20
0.0
 30
0.0
 11
-2.5
 21
0.0
 31
0.0
  0
LINE
  5
90
330
8B
100
AcDbEntity
  8
FORMAT
 62
     0
100
AcDbLine
 10
0.0
 20
0.0
 30
0.0
 11
0.0
 21
-2.5
 31
0.0
  0
LINE
  5
91
330
8B
100
AcDbEntity
  8
FORMAT
 62
     0
100
AcDbLine
 10
0.0
 20
0.0
 30
0.0
 11
2.5
 21
0.0
 31
0.0
  0
LINE
  5
92
330
8B
100
AcDbEntity
  8
FORMAT
 62
     0
100
AcDbLine
 10
0.0
 20
5.0
 30
0.0
 11
0.0
 21
116.5
 31
0.0
  0
LINE
  5
93
330
8B
100
AcDbEntity
  8
FORMAT
 62
     0
100
AcDbLine
 10
-5.0
 20
0.0
 30
0.0
 11
-116.5
 21
0.0
 31
0.0
  0
LINE
  5
94
330
8B
100
AcDbEntity
  8
FORMAT
 62
     0
100
AcDbLine
 10
0.0
 20
-5.0
 30
0.0
 11
0.0
 21
-116.5
 31
0.0
  0
LINE
  5
95
330
8B
100
AcDbEntity
  8
FORMAT
 62
     0
100
AcDbLine
 10
5.0
 20
0.0
 30
0.0
 11
116.5
 21
0.0
 31
0.0
  0
ENDBLK
  5
8D
330
8B
100
AcDbEntity
  8
0
100
AcDbBlockEnd
  0
BLOCK
  5
AA
330
A9
100
AcDbEntity
  8
0
100
AcDbBlockBegin
  2
SW_CENTERMARKSYMBOL_1
 70
     0
 10
0.0
 20
0.0
 30
0.0
  3
SW_CENTERMARKSYMBOL_1
  1

  0
LINE
  5
AC
330
A9
100
AcDbEntity
  8
FORMAT
 62
     0
100
AcDbLine
 10
0.0
 20
0.0
 30
0.0
 11
0.0
 21
2.5
 31
0.0
  0
LINE
  5
AD
330
A9
100
AcDbEntity
  8
FORMAT
 62
     0
100
AcDbLine
 10
0.0
 20
0.0
 30
0.0
 11
-2.5
 21
0.0
 31
0.0
  0
LINE
  5
AE
330
A9
100
AcDbEntity
  8
FORMAT
 62
     0
100
AcDbLine
 10
0.0
 20
0.0
 30
0.0
 11
0.0
 21
-2.5
 31
0.0
  0
LINE
  5
AF
330
A9
100
AcDbEntity
  8
FORMAT
 62
     0
100
AcDbLine
 10
0.0
 20
0.0
 30
0.0
 11
2.5
 21
0.0
 31
0.0
  0
LINE
  5
B0
330
A9
100
AcDbEntity
  8
FORMAT
 62
     0
100
AcDbLine
 10
0.0
 20
5.0
 30
0.0
 11
0.0
 21
65.0
 31
0.0
  0
LINE
  5
B1
330
A9
100
AcDbEntity
  8
FORMAT
 62
     0
100
AcDbLine
 10
-5.0
 20
0.0
 30
0.0
 11
-65.0
 21
0.0
 31
0.0
  0
LINE
  5
B2
330
A9
100
AcDbEntity
  8
FORMAT
 62
     0
100
AcDbLine
 10
0.0
 20
-5.0
 30
0.0
 11
0.0
 21
-65.0
 31
0.0
  0
LINE
  5
B3
330
A9
100
AcDbEntity
  8
FORMAT
 62
     0
100
AcDbLine
 10
5.0
 20
0.0
 30
0.0
 11
65.0
 21
0.0
 31
0.0
  0
ENDBLK
  5
AB
330
A9
100
AcDbEntity
  8
0
100
AcDbBlockEnd
  0
BLOCK
  5
DA
330
D9
100
AcDbEntity
  8
0
100
AcDbBlockBegin
  2
SW_CENTERMARKSYMBOL_2
 70
     0
 10
0.0
 20
0.0
 30
0.0
  3
SW_CENTERMARKSYMBOL_2
  1

  0
LINE
  5
DC
330
D9
100
AcDbEntity
  8
FORMAT
 62
     0
100
AcDbLine
 10
0.0
 20
0.0
 30
0.0
 11
0.0
 21
2.5
 31
0.0
  0
LINE
  5
DD
330
D9
100
AcDbEntity
  8
FORMAT
 62
     0
100
AcDbLine
 10
0.0
 20
0.0
 30
0.0
 11
-2.5
 21
0.0
 31
0.0
  0
LINE
  5
DE
330
D9
100
AcDbEntity
  8
FORMAT
 62
     0
100
AcDbLine
 10
0.0
 20
0.0
 30
0.0
 11
0.0
 21
-2.5
 31
0.0
  0
LINE
  5
DF
330
D9
100
AcDbEntity
  8
FORMAT
 62
     0
100
AcDbLine
 10
0.0
 20
0.0
 30
0.0
 11
2.5
 21
0.0
 31
0.0
  0
LINE
  5
E0
330
D9
100
AcDbEntity
  8
FORMAT
 62
     0
100
AcDbLine
 10
0.0
 20
5.0
 30
0.0
 11
0.0
 21
9.5
 31
0.0
  0
LINE
  5
E1
330
D9
100
AcDbEntity
  8
FORMAT
 62
     0
100
AcDbLine
 10
-5.0
 20
0.0
 30
0.0
 11
-9.5
 21
0.0
 31
0.0
  0
LINE
  5
E2
330
D9
100
AcDbEntity
  8
FORMAT
 62
     0
100
AcDbLine
 10
0.0
 20
-5.0
 30
0.0
 11
0.0
 21
-9.5
 31
0.0
  0
LINE
  5
E3
330
D9
100
AcDbEntity
  8
FORMAT
 62
     0
100
AcDbLine
 10
5.0
 20
0.0
 30
0.0
 11
9.5
 21
0.0
 31
0.0
  0
ENDBLK
  5
DB
330
D9
100
AcDbEntity
  8
0
100
AcDbBlockEnd
  0
BLOCK
  5
E6
330
E5
100
AcDbEntity
  8
0
100
AcDbBlockBegin
  2
SW_CENTERMARKSYMBOL_3
 70
     0
 10
0.0
 20
0.0
 30
0.0
  3
SW_CENTERMARKSYMBOL_3
  1

  0
LINE
  5
E8
330
E5
100
AcDbEntity
  8
FORMAT
 62
     0
100
AcDbLine
 10
0.0
 20
0.0
 30
0.0
 11
0.0
 21
2.5
 31
0.0
  0
LINE
  5
E9
330
E5
100
AcDbEntity
  8
FORMAT
 62
     0
100
AcDbLine
 10
0.0
 20
0.0
 30
0.0
 11
-2.5
 21
0.0
 31
0.0
  0
LINE
  5
EA
330
E5
100
AcDbEntity
  8
FORMAT
 62
     0
100
AcDbLine
 10
0.0
 20
0.0
 30
0.0
 11
0.0
 21
-2.5
 31
0.0
  0
LINE
  5
EB
330
E5
100
AcDbEntity
  8
FORMAT
 62
     0
100
AcDbLine
 10
0.0
 20
0.0
 30
0.0
 11
2.5
 21
0.0
 31
0.0
  0
LINE
  5
EC
330
E5
100
AcDbEntity
  8
FORMAT
 62
     0
100
AcDbLine
 10
0.0
 20
5.0
 30
0.0
 11
0.0
 21
9.5
 31
0.0
  0
LINE
  5
ED
330
E5
100
AcDbEntity
  8
FORMAT
 62
     0
100
AcDbLine
 10
-5.0
 20
0.0
 30
0.0
 11
-9.5
 21
0.0
 31
0.0
  0
LINE
  5
EE
330
E5
100
AcDbEntity
  8
FORMAT
 62
     0
100
AcDbLine
 10
0.0
 20
-5.0
 30
0.0
 11
0.0
 21
-9.5
 31
0.0
  0
LINE
  5
EF
330
E5
100
AcDbEntity
  8
FORMAT
 62
     0
100
AcDbLine
 10
5.0
 20
0.0
 30
0.0
 11
9.5
 21
0.0
 31
0.0
  0
ENDBLK
  5
E7
330
E5
100
AcDbEntity
  8
0
100
AcDbBlockEnd
  0
ENDSEC
  0
SECTION
  2
ENTITIES
  0
LINE
  5
83
330
1F
100
AcDbEntity
  8
0
  6
Continuous
 62
     7
370
    25
100
AcDbLine
 10
112.8846346117
 20
222.1480325455
 30
0.0
 11
112.8846346117
 21
237.3577148572
 31
0.0
  0
LINE
  5
84
330
1F
100
AcDbEntity
  8
0
  6
Continuous
 62
     7
370
    25
100
AcDbLine
 10
98.8846346117
 20
237.3577148572
 30
0.0
 11
98.8846346117
 21
222.1431293482
 31
0.0
  0
LINE
  5
85
330
1F
100
AcDbEntity
  8
0
  6
Continuous
 62
     7
370
    25
100
AcDbLine
 10
201.2958169747
 20
45.8577148572
 30
0.0
 11
312.8846346117
 21
45.8577148572
 31
0.0
  0
LINE
  5
86
330
1F
100
AcDbEntity
  8
0
  6
Continuous
 62
     7
370
    25
100
AcDbLine
 10
312.8846346117
 20
170.8577148572
 30
0.0
 11
201.2427719946
 21
170.8577148572
 31
0.0
  0
CIRCLE
  5
87
330
1F
100
AcDbEntity
  8
0
  6
Continuous
 62
     7
370
    25
100
AcDbCircle
 10
105.8846346117
 20
108.3577148572
 30
0.0
 40
90.00000000000001
  0
CIRCLE
  5
88
330
1F
100
AcDbEntity
  8
0
  6
Continuous
 62
     7
370
    25
100
AcDbCircle
 10
105.8846346117
 20
108.3577148572
 30
0.0
 40
114.0
  0
LINE
  5
89
330
1F
100
AcDbEntity
  8
0
  6
Continuous
 62
     7
370
    25
100
AcDbLine
 10
112.8846346117
 20
237.3577148572
 30
0.0
 11
98.8846346117
 21
237.3577148572
 31
0.0
  0
LINE
  5
8A
330
1F
100
AcDbEntity
  8
0
  6
Continuous
 62
     7
370
    25
100
AcDbLine
 10
312.8846346117
 20
170.8577148572
 30
0.0
 11
312.8846346117
 21
45.8577148572
 31
0.0
  0
INSERT
  5
96
330
1F
100
AcDbEntity
  8
FORMAT
 62
     7
100
AcDbBlockReference
  2
SW_CENTERMARKSYMBOL_0
 10
105.8846346117
 20
108.3577148572
 30
0.0
  0
LINE
  5
97
330
1F
100
AcDbEntity
  8
0
  6
Continuous
 62
     7
370
    25
100
AcDbLine
 10
-498.1445988579
 20
222.3577148572
 30
0.0
 11
-499.230718204
 21
222.3577148572
 31
0.0
  0
LINE
  5
98
330
1F
100
AcDbEntity
  8
0
  6
Continuous
 62
     7
370
    25
100
AcDbLine
 10
-174.1445988579
 20
222.3577148572
 30
0.0
 11
-484.230718204
 21
222.3577148572
 31
0.0
  0
LINE
  5
99
330
1F
100
AcDbEntity
  8
0
  6
Continuous
 62
     7
370
    25
100
AcDbLine
 10
-159.230718204
 20
222.3577148572
 30
0.0
 11
-160.230718204
 21
222.3577148572
 31
0.0
  0
LINE
  5
9A
330
1F
100
AcDbEntity
  8
0
  6
Continuous
 62
     7
370
    25
100
AcDbLine
 10
-499.230718204
 20
-5.6422851428
 30
0.0
 11
-159.230718204
 21
-5.6422851428
 31
0.0
  0
LINE
  5
9B
330
1F
100
AcDbEntity
  8
0
  6
Continuous
 62
     7
370
    25
100
AcDbLine
 10
-160.230718204
 20
222.3577148572
 30
0.0
 11
-160.230718204
 21
237.3577148572
 31
0.0
  0
LINE
  5
9C
330
1F
100
AcDbEntity
  8
0
  6
Continuous
 62
     7
370
    25
100
AcDbLine
 10
-174.230718204
 20
237.3577148572
 30
0.0
 11
-174.230718204
 21
222.3524984725
 31
0.0
  0
LINE
  5
9D
330
1F
100
AcDbEntity
  8
0
  6
Continuous
 62
     7
370
    25
100
AcDbLine
 10
-484.230718204
 20
222.3577148572
 30
0.0
 11
-484.230718204
 21
237.3577148572
 31
0.0
  0
LINE
  5
9E
330
1F
100
AcDbEntity
  8
0
  6
Continuous
 62
     7
370
    25
100
AcDbLine
 10
-498.230718204
 20
237.3577148572
 30
0.0
 11
-498.230718204
 21
222.3524984725
 31
0.0
  0
CIRCLE
  5
9F
330
1F
100
AcDbEntity
  8
0
  6
Continuous
 62
     7
370
    25
100
AcDbCircle
 10
-329.230718204
 20
108.3577148572
 30
0.0
 40
51.09999999999997
  0
CIRCLE
  5
A0
330
1F
100
AcDbEntity
  8
0
  6
Continuous
 62
     7
370
    25
100
AcDbCircle
 10
-329.230718204
 20
108.3577148572
 30
0.0
 40
62.5
  0
LINE
  5
A1
330
1F
100
AcDbEntity
  8
0
  6
Continuous
 62
     7
370
    25
100
AcDbLine
 10
-499.230718204
 20
108.3577148572
 30
0.0
 11
-499.230718204
 21
222.3577148572
 31
0.0
  0
LINE
  5
A2
330
1F
100
AcDbEntity
  8
0
  6
Continuous
 62
     7
370
    25
100
AcDbLine
 10
-499.230718204
 20
-5.6422851428
 30
0.0
 11
-499.230718204
 21
108.3577148572
 31
0.0
  0
LINE
  5
A3
330
1F
100
AcDbEntity
  8
0
  6
Continuous
 62
     7
370
    25
100
AcDbLine
 10
-159.230718204
 20
108.3577148572
 30
0.0
 11
-159.230718204
 21
222.3577148572
 31
0.0
  0
LINE
  5
A4
330
1F
100
AcDbEntity
  8
0
  6
Continuous
 62
     7
370
    25
100
AcDbLine
 10
-159.230718204
 20
-5.6422851428
 30
0.0
 11
-159.230718204
 21
108.3577148572
 31
0.0
  0
SPLINE
  5
A5
330
1F
100
AcDbEntity
  8
0
  6
Continuous
 62
     7
370
    25
100
AcDbSpline
210
0.0
220
0.0
230
1.0
 70
     8
 71
     3
 72
    17
 73
    13
 74
     0
 42
0.00000001
 43
0.00000001
 40
0.0
 40
0.0
 40
0.0
 40
0.0
 40
0.1072328975787992
 40
0.2144609189676355
 40
0.3218155751301723
 40
0.4292537124199747
 40
0.5365538965475342
 40
0.6437099665324586
 40
0.7509406710067446
 40
0.8583481467819293
 40
0.9657589513072261
 40
1.0
 40
1.0
 40
1.0
 40
1.0
 10
-484.2307182039646
 20
222.3577148572014
 30
0.0
 10
-484.3079646351538
 20
222.352836559778
 30
0.0
 10
-484.4624539849139
 20
222.3430801867613
 30
0.0
 10
-485.6665669938697
 20
222.2752369994964
 30
0.0
 10
-487.4410564950601
 20
222.1997345630929
 30
0.0
 10
-489.6587259559956
 20
222.1453443747666
 30
0.0
 10
-492.0497866657611
 20
222.1372455491051
 30
0.0
 10
-494.3436796002446
 20
222.1782829698278
 30
0.0
 10
-496.3021805303356
 20
222.2515991952054
 30
0.0
 10
-497.6358476296855
 20
222.3211555341753
 30
0.0
 10
-498.2694929586758
 20
222.3600639299228
 30
0.0
 10
-498.1689119765024
 20
222.3539555183555
 30
0.0
 10
-498.1445988578956
 20
222.3524789515958
 30
0.0
  0
SPLINE
  5
A6
330
1F
100
AcDbEntity
  8
0
  6
Continuous
 62
     7
370
    25
100
AcDbSpline
210
0.0
220
0.0
230
1.0
 70
     8
 71
     3
 72
    17
 73
    13
 74
     0
 42
0.00000001
 43
0.00000001
 40
0.0
 40
0.0
 40
0.0
 40
0.0
 40
0.1072328975787989
 40
0.2144609189676348
 40
0.3218155751301717
 40
0.4292537124199738
 40
0.536553896547533
 40
0.6437099665324573
 40
0.750940671006743
 40
0.8583481467819276
 40
0.9657589513072242
 40
1.0
 40
1.0
 40
1.0
 40
1.0
 10
-160.2307182039646
 20
222.3577148572014
 30
0.0
 10
-160.3079646351538
 20
222.352836559778
 30
0.0
 10
-160.4624539849138
 20
222.3430801867613
 30
0.0
 10
-161.6665669938697
 20
222.2752369994964
 30
0.0
 10
-163.44105649506
 20
222.1997345630929
 30
0.0
 10
-165.6587259559956
 20
222.1453443747666
 30
0.0
 10
-168.0497866657611
 20
222.1372455491052
 30
0.0
 10
-170.3436796002446
 20
222.1782829698277
 30
0.0
 10
-172.3021805303354
 20
222.2515991952054
 30
0.0
 10
-173.6358476296855
 20
222.3211555341753
 30
0.0
 10
-174.2694929586757
 20
222.3600639299228
 30
0.0
 10
-174.1689119765024
 20
222.3539555183555
 30
0.0
 10
-174.1445988578956
 20
222.3524789515958
 30
0.0
  0
LINE
  5
A7
330
1F
100
AcDbEntity
  8
0
  6
Continuous
 62
     7
370
    25
100
AcDbLine
 10
-160.230718204
 20
237.3577148572
 30
0.0
 11
-174.230718204
 21
237.3577148572
 31
0.0
  0
LINE
  5
A8
330
1F
100
AcDbEntity
  8
0
  6
Continuous
 62
     7
370
    25
100
AcDbLine
 10
-484.230718204
 20
237.3577148572
 30
0.0
 11
-498.230718204
 21
237.3577148572
 31
0.0
  0
INSERT
  5
B4
330
1F
100
AcDbEntity
  8
FORMAT
 62
     7
100
AcDbBlockReference
  2
SW_CENTERMARKSYMBOL_1
 10
-329.230718204
 20
108.3577148572
 30
0.0
  0
LINE
  5
B5
330
1F
100
AcDbEntity
  8
0
  6
Continuous
 62
     7
370
    25
100
AcDbLine
 10
219.8846346117
 20
559.7460580028
 30
0.0
 11
219.8846346117
 21
667.2460580028
 31
0.0
  0
LINE
  5
B6
330
1F
100
AcDbEntity
  8
0
  6
Continuous
 62
     7
370
    25
100
AcDbLine
 10
219.8846346117
 20
327.2460580028
 30
0.0
 11
219.8846346117
 21
434.7643133808
 31
0.0
  0
LINE
  5
B7
330
1F
100
AcDbEntity
  8
0
  6
Continuous
 62
     7
370
    25
100
AcDbLine
 10
-8.1153653883
 20
667.2460580028
 30
0.0
 11
-8.1153653883
 21
327.2460580028
 31
0.0
  0
LINE
  5
B8
330
1F
100
AcDbEntity
  8
0
  6
Continuous
 62
     7
370
    25
100
AcDbLine
 10
219.8746441138
 20
434.7460580028
 30
0.0
 11
312.8846346117
 21
434.7460580028
 31
0.0
  0
LINE
  5
B9
330
1F
100
AcDbEntity
  8
0
  6
Continuous
 62
     7
370
    25
100
AcDbLine
 10
312.8846346117
 20
559.7460580028
 30
0.0
 11
219.8846346117
 21
559.7460580028
 31
0.0
  0
SPLINE
  5
BA
330
1F
100
AcDbEntity
  8
0
  6
Continuous
 62
     7
370
    25
100
AcDbSpline
210
0.0
220
0.0
230
1.0
 70
     8
 71
     3
 72
    46
 73
    42
 74
     0
 42
0.00000001
 43
0.00000001
 40
0.0
 40
0.0
 40
0.0
 40
0.0
 40
0.0238314545941954
 40
0.0478453064135579
 40
0.0724241844535879
 40
0.097191995540148
 40
0.1210205011701553
 40
0.1450037344123179
 40
0.1694472642774989
 40
0.1940387690277322
 40
0.219536742217118
 40
0.2451863340708107
 40
0.2712983504566512
 40
0.297566872498649
 40
0.325428401953897
 40
0.3534925655898263
 40
0.3822414603263509
 40
0.4112540312371296
 40
0.4372142120611814
 40
0.4634084600238508
 40
0.4903929862735131
 40
0.5176696163282546
 40
0.5398467520505911
 40
0.5621807028788548
 40
0.5849851355399063
 40
0.6079408257025767
 40
0.6306911881680718
 40
0.653569437572427
 40
0.7001626201474774
 40
0.7264403263328582
 40
0.75287812235521
 40
0.7798180547796723
 40
0.8069346615154807
 40
0.83480056099646
 40
0.862884097639909
 40
0.8917029185831622
 40
0.920799601301679
 40
0.9460467447266306
 40
0.9715023201617431
 40
0.9976379476790029
 40
1.0
 40
1.0
 40
1.0
 40
1.0
 10
219.8846346117178
 20
559.7460580028098
 30
0.0
 10
219.865280761405
 20
559.7107926312821
 30
0.0
 10
219.8264249334977
 20
559.639991979989
 30
0.0
 10
219.5112563753081
 20
559.0634333085201
 30
0.0
 10
219.007057069466
 20
558.1330543930412
 30
0.0
 10
218.3106817724743
 20
556.8311577688978
 30
0.0
 10
217.4529914113506
 20
555.1987000659342
 30
0.0
 10
216.4531565310946
 20
553.2527280289022
 30
0.0
 10
215.3154712481627
 20
550.9756121293007
 30
0.0
 10
214.0472609408399
 20
548.3480990938629
 30
0.0
 10
212.6747203780751
 20
545.3813244029471
 30
0.0
 10
211.218005048829
 20
542.0640819751533
 30
0.0
 10
209.7215915104681
 20
538.4333840841707
 30
0.0
 10
208.1927308947791
 20
534.4248126574017
 30
0.0
 10
206.6773063615252
 20
530.0444173165587
 30
0.0
 10
205.2176218879786
 20
525.260041396664
 30
0.0
 10
203.89365427399
 20
520.1542292891718
 30
0.0
 10
202.8089407696228
 20
514.9489846118663
 30
0.0
 10
201.9948317426412
 20
509.7328819286076
 30
0.0
 10
201.4539155976084
 20
504.5275998884682
 30
0.0
 10
201.1920604787429
 20
499.1598978795099
 30
0.0
 10
201.235667513236
 20
494.0399670620094
 30
0.0
 10
201.5246035068986
 20
489.2637480613797
 30
0.0
 10
201.9951633970154
 20
484.8420977940559
 30
0.0
 10
202.6598970124426
 20
480.457223041163
 30
0.0
 10
203.4993179789649
 20
476.1612263509838
 30
0.0
 10
204.4850996793525
 20
471.9975930886307
 30
0.0
 10
205.9697393904298
 20
466.607495444966
 30
0.0
 10
207.7080778234901
 20
461.3621612515651
 30
0.0
 10
209.5965493532139
 20
456.3736360674581
 30
0.0
 10
211.1248878758727
 20
452.6443682474903
 30
0.0
 10
212.6451792328232
 20
449.1729909320115
 30
0.0
 10
214.1298871980837
 20
445.965491881708
 30
0.0
 10
215.5331992004388
 20
443.0710665326141
 30
0.0
 10
216.8206190755829
 20
440.5150075817138
 30
0.0
 10
217.9407845236194
 20
438.3586395582556
 30
0.0
 10
218.8041125113662
 20
436.735827134193
 30
0.0
 10
219.416945919895
 20
435.6019089871756
 30
0.0
 10
219.7669162488128
 20
434.9606344598845
 30
0.0
 10
219.917458003442
 20
434.686129403006
 30
0.0
 10
219.8779133520202
 20
434.7583290564275
 30
0.0
 10
219.874635662882
 20
434.7643133807621
 30
0.0
  0
LINE
  5
BB
330
1F
100
AcDbEntity
  8
0
  6
Continuous
 62
     7
370
    25
100
AcDbLine
 10
-8.1153653883
 20
667.2460580028
 30
0.0
 11
219.8846346117
 21
667.2460580028
 31
0.0
  0
LINE
  5
BC
330
1F
100
AcDbEntity
  8
0
  6
Continuous
 62
     7
370
    25
100
AcDbLine
 10
-8.1153653883
 20
327.2460580028
 30
0.0
 11
219.8846346117
 21
327.2460580028
 31
0.0
  0
LINE
  5
BD
330
1F
100
AcDbEntity
  8
0
  6
Continuous
 62
     7
370
    25
100
AcDbLine
 10
312.8846346117
 20
559.7460580028
 30
0.0
 11
312.8846346117
 21
434.7460580028
 31
0.0
  0
LINE
  5
BE
330
1F
100
AcDbEntity
  8
0
  6
Continuous
 62
     7
370
    25
100
AcDbLine
 10
460.1784491514
 20
-5.6422851428
 30
0.0
 11
800.1784491514
 21
-5.6422851428
 31
0.0
  0
LINE
  5
BF
330
1F
100
AcDbEntity
  8
0
  6
Continuous
 62
     7
370
    25
100
AcDbLine
 10
461.1784491514
 20
222.3577148572
 30
0.0
 11
460.1784491514
 21
222.3577148572
 31
0.0
  0
LINE
  5
C0
330
1F
100
AcDbEntity
  8
0
  6
Continuous
 62
     7
370
    25
100
AcDbLine
 10
785.1784491514
 20
222.3577148572
 30
0.0
 11
475.0923298053
 21
222.3577148572
 31
0.0
  0
LINE
  5
C1
330
1F
100
AcDbEntity
  8
0
  6
Continuous
 62
     7
370
    25
100
AcDbLine
 10
800.1784491514
 20
222.3577148572
 30
0.0
 11
799.0923298053
 21
222.3577148572
 31
0.0
  0
LINE
  5
C2
330
1F
100
AcDbEntity
  8
0
  6
Continuous
 62
     7
370
    25
100
AcDbLine
 10
475.1784491514
 20
222.3524984725
 30
0.0
 11
475.1784491514
 21
237.3577148572
 31
0.0
  0
LINE
  5
C3
330
1F
100
AcDbEntity
  8
0
  6
Continuous
 62
     7
370
    25
100
AcDbLine
 10
461.1784491514
 20
237.3577148572
 30
0.0
 11
461.1784491514
 21
222.3577148572
 31
0.0
  0
LINE
  5
C4
330
1F
100
AcDbEntity
  8
0
  6
Continuous
 62
     7
370
    25
100
AcDbLine
 10
799.1784491514
 20
222.3524984725
 30
0.0
 11
799.1784491514
 21
237.3577148572
 31
0.0
  0
LINE
  5
C5
330
1F
100
AcDbEntity
  8
0
  6
Continuous
 62
     7
370
    25
100
AcDbLine
 10
785.1784491514
 20
237.3577148572
 30
0.0
 11
785.1784491514
 21
222.3577148572
 31
0.0
  0
LINE
  5
C6
330
1F
100
AcDbEntity
  8
0
  6
Continuous
 62
     7
370
    25
100
AcDbLine
 10
800.1784491514
 20
222.3577148572
 30
0.0
 11
800.1784491514
 21
-5.6422851428
 31
0.0
  0
LINE
  5
C7
330
1F
100
AcDbEntity
  8
0
  6
Continuous
 62
     7
370
    25
100
AcDbLine
 10
460.1784491514
 20
222.3577148572
 30
0.0
 11
460.1784491514
 21
-5.6422851428
 31
0.0
  0
ARC
  5
C8
330
1F
100
AcDbEntity
  8
0
  6
Continuous
 62
     7
370
    25
100
AcDbCircle
 10
792.1782444442
 20
336.237761186
 30
0.0
 40
114.0949695910908
100
AcDbArc
 50
266.4826604814
 51
273.474217792
  0
ARC
  5
C9
330
1F
100
AcDbEntity
  8
0
  6
Continuous
 62
     7
370
    25
100
AcDbCircle
 10
468.1782444442
 20
336.237761186
 30
0.0
 40
114.0949695910946
100
AcDbArc
 50
266.4826604814
 51
273.474217792
  0
LINE
  5
CA
330
1F
100
AcDbEntity
  8
0
  6
Continuous
 62
     7
370
    25
100
AcDbLine
 10
475.1784491514
 20
237.3577148572
 30
0.0
 11
461.1784491514
 21
237.3577148572
 31
0.0
  0
LINE
  5
CB
330
1F
100
AcDbEntity
  8
0
  6
Continuous
 62
     7
370
    25
100
AcDbLine
 10
799.1784491514
 20
237.3577148572
 30
0.0
 11
785.1784491514
 21
237.3577148572
 31
0.0
  0
LINE
  5
CC
330
1F
100
AcDbEntity
  8
0
  6
Continuous
 62
     7
370
    25
100
AcDbLine
 10
-8.1153653883
 20
-128.5987385509
 30
0.0
 11
-8.1153653883
 21
-468.5987385509
 31
0.0
  0
LINE
  5
CD
330
1F
100
AcDbEntity
  8
0
  6
Continuous
 62
     7
370
    25
100
AcDbLine
 10
219.8846346117
 20
-236.1169939288
 30
0.0
 11
219.8846346117
 21
-128.5987385509
 31
0.0
  0
LINE
  5
CE
330
1F
100
AcDbEntity
  8
0
  6
Continuous
 62
     7
370
    25
100
AcDbLine
 10
219.8846346117
 20
-468.5987385509
 30
0.0
 11
219.8846346117
 21
-361.0987385509
 31
0.0
  0
LINE
  5
CF
330
1F
100
AcDbEntity
  8
0
  6
Continuous
 62
     7
370
    25
100
AcDbLine
 10
219.8846346117
 20
-361.0987385509
 30
0.0
 11
312.8846346117
 21
-361.0987385509
 31
0.0
  0
LINE
  5
D0
330
1F
100
AcDbEntity
  8
0
  6
Continuous
 62
     7
370
    25
100
AcDbLine
 10
312.8846346117
 20
-236.0987385509
 30
0.0
 11
219.8746441138
 21
-236.0987385509
 31
0.0
  0
CIRCLE
  5
D1
330
1F
100
AcDbEntity
  8
0
  6
Continuous
 62
     7
370
    25
100
AcDbCircle
 10
105.8846346117
 20
-136.5987385509
 30
0.0
 40
5.0
  0
CIRCLE
  5
D2
330
1F
100
AcDbEntity
  8
0
  6
Continuous
 62
     7
370
    25
100
AcDbCircle
 10
105.8846346117
 20
-136.5987385509
 30
0.0
 40
7.0
  0
CIRCLE
  5
D3
330
1F
100
AcDbEntity
  8
0
  6
Continuous
 62
     7
370
    25
100
AcDbCircle
 10
105.8846346117
 20
-460.5987385509
 30
0.0
 40
5.0
  0
CIRCLE
  5
D4
330
1F
100
AcDbEntity
  8
0
  6
Continuous
 62
     7
370
    25
100
AcDbCircle
 10
105.8846346117
 20
-460.5987385509
 30
0.0
 40
7.0
  0
LWPOLYLINE
  5
D5
330
1F
100
AcDbEntity
  8
0
  6
Continuous
 62
     7
370
    25
100
AcDbPolyline
 90
       40
 70
   128
 43
0.0
 10
219.8746356629
 20
-236.1169939288
 10
219.7829752547
 20
-236.2843581782
 10
219.4979029067
 20
-236.8069532339
 10
219.031927798
 20
-237.6679585182
 10
218.386988037
 20
-238.8741244775
 10
217.576879697
 20
-240.4144828438
 10
216.625790406
 20
-242.2617738949
 10
215.54459861
 20
-244.4179513278
 10
214.3459421583
 20
-246.8869871328
 10
213.0582781621
 20
-249.6452925856
 10
211.6000678321
 20
-252.9259586817
 10
210.0894211585
 20
-256.5405938074
 10
208.5709047191
 20
-260.4579458405
 10
207.0738743892
 20
-264.6942809273
 10
205.6078253384
 20
-269.3589579648
 10
204.2691297394
 20
-274.3137868001
 10
203.0924644899
 20
-279.6352950443
 10
202.1597025696
 20
-285.2144675476
 10
201.5987538225
 20
-290.1463651392
 10
201.2836645348
 20
-295.2483788283
 10
201.2424406277
 20
-300.4320874499
 10
201.4888795
 20
-305.6995582676
 10
201.9086011095
 20
-310.0378006614
 10
202.5135231513
 20
-314.3274416248
 10
203.2937238655
 20
-318.568232016
 10
204.2257344114
 20
-322.7072828831
 10
205.3217386639
 20
-326.8474139584
 10
206.5277272182
 20
-330.8366368911
 10
209.1728404825
 20
-338.3316401816
 10
210.7140650268
 20
-342.1815273688
 10
212.2609097222
 20
-345.7809587868
 10
213.7640138592
 20
-349.078541114
 10
215.1937200565
 20
-352.0657953313
 10
216.4830778668
 20
-354.6546539429
 10
217.6151022229
 20
-356.8563337004
 10
218.5682944211
 20
-358.6641794302
 10
219.2845491178
 20
-359.9973591379
 10
219.7314700106
 20
-360.8189276405
 10
219.8846346117
 20
-361.0987385509
 10
219.8846346117
 20
-361.0987385509
  0
LINE
  5
D6
330
1F
100
AcDbEntity
  8
0
  6
Continuous
 62
     7
370
    25
100
AcDbLine
 10
219.8846346117
 20
-468.5987385509
 30
0.0
 11
-8.1153653883
 21
-468.5987385509
 31
0.0
  0
LINE
  5
D7
330
1F
100
AcDbEntity
  8
0
  6
Continuous
 62
     7
370
    25
100
AcDbLine
 10
219.8846346117
 20
-128.5987385509
 30
0.0
 11
-8.1153653883
 21
-128.5987385509
 31
0.0
  0
LINE
  5
D8
330
1F
100
AcDbEntity
  8
0
  6
Continuous
 62
     7
370
    25
100
AcDbLine
 10
312.8846346117
 20
-236.0987385509
 30
0.0
 11
312.8846346117
 21
-361.0987385509
 31
0.0
  0
INSERT
  5
E4
330
1F
100
AcDbEntity
  8
FORMAT
 62
     7
100
AcDbBlockReference
  2
SW_CENTERMARKSYMBOL_2
 10
105.8846346117
 20
-460.5987385509
 30
0.0
  0
INSERT
  5
F0
330
1F
100
AcDbEntity
  8
FORMAT
 62
     7
100
AcDbBlockReference
  2
SW_CENTERMARKSYMBOL_3
 10
105.8846346117
 20
-136.5987385509
 30
0.0
  0
LINE
  5
F1
330
1F
100
AcDbEntity
  8
0
  6
Continuous
 62
     7
370
    25
100
AcDbLine
 10
850.5593988796
 20
-255.4889131315
 30
0.0
 11
849.8702231731
 21
-255.0910604647
 31
0.0
  0
LINE
  5
F2
330
1F
100
AcDbEntity
  8
0
  6
Continuous
 62
     7
370
    25
100
AcDbLine
 10
724.860063927
 20
-182.924231646
 30
0.0
 11
610.1430932761
 21
-116.6995341216
 31
0.0
  0
LINE
  5
F3
330
1F
100
AcDbEntity
  8
0
  6
Continuous
 62
     7
370
    25
100
AcDbLine
 10
496.1523577556
 20
-314.1586747444
 30
0.0
 11
736.5686633591
 21
-452.9480537543
 31
0.0
  0
LINE
  5
F4
330
1F
100
AcDbEntity
  8
0
  6
Continuous
 62
     7
370
    25
100
AcDbLine
 10
778.9083253874
 20
-296.0564920826
 30
0.0
 11
850.9744424181
 21
-254.4536082631
 31
0.0
  0
LINE
  5
F5
330
1F
100
AcDbEntity
  8
0
  6
Continuous
 62
     7
370
    25
100
AcDbLine
 10
788.4795216283
 20
-146.1975004655
 30
0.0
 11
716.4120966758
 21
-187.8011393323
 31
0.0
  0
LINE
  5
F6
330
1F
100
AcDbEntity
  8
0
  6
Continuous
 62
     7
370
    25
100
AcDbLine
 10
565.8045797654
 20
-116.1913916701
 30
0.0
 11
565.8045797654
 21
-113.360972147
 31
0.0
  0
LINE
  5
F7
330
1F
100
AcDbEntity
  8
0
  6
Continuous
 62
     7
370
    25
100
AcDbLine
 10
551.8045797654
 20
-113.360972147
 30
0.0
 11
551.8045797654
 21
-123.1317560027
 31
0.0
  0
SPLINE
  5
F8
330
1F
100
AcDbEntity
  8
0
  6
Continuous
 62
     7
370
    25
100
AcDbSpline
210
0.0
220
0.0
230
1.0
 70
     8
 71
     3
 72
    36
 73
    32
 74
     0
 42
0.00000001
 43
0.00000001
 40
0.0
 40
0.0
 40
0.0
 40
0.0
 40
0.0318834079977505
 40
0.0642625354638844
 40
0.0966429628726731
 40
0.1295223172460054
 40
0.1613792347503796
 40
0.1936470044204655
 40
0.2259167960321431
 40
0.2585847206579462
 40
0.292768161326834
 40
0.3269528410493026
 40
0.3615443709875947
 40
0.3965510389000387
 40
0.4336806234123796
 40
0.4710802477640187
 40
0.5093923769840144
 40
0.5480558934748198
 40
0.5829843240444537
 40
0.6179088451805418
 40
0.6535197405046315
 40
0.6898698605673552
 40
0.7195280213103635
 40
0.7496046679877687
 40
0.7796834748500183
 40
0.8101692692101489
 40
0.8481764614330113
 40
0.8865158001336779
 40
0.933085694082646
 40
0.9683230216609633
 40
1.0
 40
1.0
 40
1.0
 40
1.0
 10
709.7718775487015
 20
-212.7757780695968
 30
0.0
 10
709.7832129684543
 20
-214.1048346217625
 30
0.0
 10
709.8060600497299
 20
-216.7836117406665
 30
0.0
 10
709.9925200882753
 20
-221.0810988191548
 30
0.0
 10
710.2945538331659
 20
-225.5767640505273
 30
0.0
 10
710.7212517199707
 20
-230.1883370514639
 30
0.0
 10
711.2708531531229
 20
-234.8883314399476
 30
0.0
 10
711.9416700949408
 20
-239.6182902506011
 30
0.0
 10
712.7475060324738
 20
-244.4135931841872
 30
0.0
 10
713.7069307739454
 20
-249.2974843425016
 30
0.0
 10
714.8358724782389
 20
-254.2372602444627
 30
0.0
 10
716.152453700346
 20
-259.1979332307359
 30
0.0
 10
717.6592451629269
 20
-264.0919459531981
 30
0.0
 10
719.4092758738318
 20
-268.9807419188774
 30
0.0
 10
721.435123426789
 20
-273.8082603993421
 30
0.0
 10
723.7860080958711
 20
-278.5348776876436
 30
0.0
 10
726.4602801254108
 20
-283.0220705393953
 30
0.0
 10
729.3822420610944
 20
-287.0557960183211
 30
0.0
 10
732.5075844595049
 20
-290.5794973336713
 30
0.0
 10
735.8071581934596
 20
-293.6059121842701
 30
0.0
 10
739.4077138249404
 20
-296.21907924992
 30
0.0
 10
743.0500226883813
 20
-298.2323400493698
 30
0.0
 10
746.647410930662
 20
-299.7089496818867
 30
0.0
 10
750.1120277646731
 20
-300.7230761621551
 30
0.0
 10
753.6785841196397
 20
-301.3795496508011
 30
0.0
 10
757.5991236899858
 20
-301.6975259619825
 30
0.0
 10
761.8563043389606
 20
-301.5743357299
 30
0.0
 10
766.699949293976
 20
-300.8675231853508
 30
0.0
 10
771.3034465487272
 20
-299.5849600900866
 30
0.0
 10
775.4892953154433
 20
-297.919766026514
 30
0.0
 10
777.8036350770728
 20
-296.6439880657389
 30
0.0
 10
778.8992347323821
 20
-296.0400396234012
 30
0.0
  0
SPLINE
  5
F9
330
1F
100
AcDbEntity
  8
0
  6
Continuous
 62
     7
370
    25
100
AcDbSpline
210
0.0
220
0.0
230
1.0
 70
     8
 71
     3
 72
    16
 73
    12
 74
     0
 42
0.00000001
 43
0.00000001
 40
0.0
 40
0.0
 40
0.0
 40
0.0
 40
0.0913540379195274
 40
0.2011995612537626
 40
0.3125641078419771
 40
0.4232086157262342
 40
0.5347477681263452
 40
0.6493149555361254
 40
0.7650236760733481
 40
0.8818459158726457
 40
1.0
 40
1.0
 40
1.0
 40
1.0
 10
716.4274936603988
 20
-187.8268323768366
 30
0.0
 10
716.0120453302568
 20
-188.0869376347486
 30
0.0
 10
715.0970554332387
 20
-188.6597975210056
 30
0.0
 10
713.9110788624162
 20
-190.0346727870854
 30
0.0
 10
712.8141410110001
 20
-191.8723200213296
 30
0.0
 10
711.8930857171935
 20
-194.1604455361326
 30
0.0
 10
711.1325626644356
 20
-196.9050488423161
 30
0.0
 10
710.531488113804
 20
-200.1378302741233
 30
0.0
 10
710.0982192503933
 20
-203.8767366706453
 30
0.0
 10
709.8233175064686
 20
-208.0629132155387
 30
0.0
 10
709.7890888705217
 20
-211.1988982038389
 30
0.0
 10
709.7718775487015
 20
-212.7757780695968
 30
0.0
  0
LWPOLYLINE
  5
FA
330
1F
100
AcDbEntity
  8
0
  6
Continuous
 62
     7
370
    25
100
AcDbPolyline
 90
      114
 70
   128
 43
0.0
 10
633.7578985711
 20
-168.8938420591
 10
633.6333178585
 20
-163.7925479544
 10
633.2599607923
 20
-158.8508594867
 10
632.638981398
 20
-154.0840511317
 10
631.7722990872
 20
-149.5068568209
 10
630.6625927252
 20
-145.1334243996
 10
629.3132923509
 20
-140.9772718968
 10
627.7285685744
 20
-137.0512457417
 10
625.9133196861
 20
-133.3674810562
 10
623.8731565162
 20
-129.9373641458
 10
621.6143850922
 20
-126.7714973053
 10
619.1439871471
 20
-123.8796660477
 10
616.4695985394
 20
-121.2708088576
 10
613.599485651
 20
-118.9529895631
 10
610.5425198364
 20
-116.9333724109
 10
607.3081500017
 20
-115.2181999218
 10
603.9063733987
 20
-113.8127735957
 10
600.347704724
 20
-112.7214375249
 10
596.6431436184
 20
-111.9475649665
 10
592.8041406682
 20
-111.4935479163
 10
588.8425620113
 20
-111.360789715
 10
584.7706526604
 20
-111.5497007105
 10
580.6009986539
 20
-112.0596969899
 10
576.3464881534
 20
-112.8892021839
 10
572.0202716071
 20
-114.0356523393
 10
567.6357211024
 20
-115.4955038446
 10
563.2063890336
 20
-117.2642443823
 10
558.7459662123
 20
-119.3364068769
 10
554.2682395498
 20
-121.7055863927
 10
549.7870494426
 20
-124.3644599317
 10
545.3162469926
 20
-127.3048090682
 10
540.869651194
 20
-130.5175453515
 10
536.4610062194
 20
-133.9927383977
 10
532.1039389379
 20
-137.7196465845
 10
527.8119167947
 20
-141.6867502521
 10
523.5982061843
 20
-145.8817873106
 10
519.4758314448
 20
-150.2917911406
 10
515.4575346002
 20
-154.9031306731
 10
511.5557359758
 20
-159.701552522
 10
507.7824958075
 20
-164.6722250402
 10
504.1494769645
 20
-169.7997841638
 10
500.6679088998
 20
-175.0683809015
 10
497.3485529407
 20
-180.4617303226
 10
494.2016690263
 20
-185.9631618932
 10
491.2369839945
 20
-191.5556710036
 10
488.4636615168
 20
-197.2219715286
 10
485.890273774
 20
-202.9445492579
 10
483.5247749601
 20
-208.7057160319
 10
481.3744766965
 20
-214.4876644141
 10
479.4460254319
 20
-220.2725227334
 10
477.7453818985
 20
-226.0424103244
 10
476.2778026881
 20
-231.779492795
 10
475.047824004
 20
-237.4660371523
 10
474.0592476397
 20
-243.0844666134
 10
473.3151292281
 20
-248.6174149348
 10
472.8177687966
 20
-254.0477800904
 10
472.5687036579
 20
-259.3587771328
 10
472.5687036579
 20
-264.5339900743
 10
472.8177687966
 20
-269.5574226284
 10
473.3151292281
 20
-274.4135476529
 10
474.0592476397
 20
-279.0873551437
 10
475.047824004
 20
-283.5643986296
 10
476.2778026881
 20
-287.8308398259
 10
477.7453818985
 20
-291.8734914072
 10
479.4460254319
 20
-295.6798577692
 10
481.3744766965
 20
-299.2381736517
 10
483.5247749601
 20
-302.5374405041
 10
485.890273774
 20
-305.5674604817
 10
488.4636615168
 20
-308.3188679664
 10
491.2369839945
 20
-310.7831585152
 10
494.2016690263
 20
-312.9527151475
 10
497.3485529407
 20
-314.8208318878
 10
500.6679088998
 20
-316.3817344945
 10
504.1494769645
 20
-317.6305983071
 10
507.7824958075
 20
-318.563563159
 10
511.5557359758
 20
-319.1777453094
 10
515.4575346002
 20
-319.4712463564
 10
519.4758314448
 20
-319.4431591052
 10
523.5982061843
 20
-319.0935703718
 10
527.8119167947
 20
-318.4235607149
 10
532.1039389379
 20
-317.435201096
 10
536.4610062194
 20
-316.1315464781
 10
540.869651194
 20
-314.5166263828
 10
545.3162469926
 20
-312.5954324357
 10
549.7870494426
 20
-310.3739029371
 10
554.2682395498
 20
-307.8589045073
 10
558.7459662123
 20
-305.0582108625
 10
563.2063890336
 20
-301.9804787862
 10
567.6357211024
 20
-298.6352213717
 10
572.0202716071
 20
-295.0327786182
 10
576.3464881534
 20
-291.1842854697
 10
580.6009986539
 20
-287.1016373979
 10
584.7706526604
 20
-282.7974536341
 10
588.8425620113
 20
-278.2850381637
 10
592.8041406682
 20
-273.5783386042
 10
596.6431436184
 20
-268.6919030943
 10
600.347704724
 20
-263.6408353261
 10
603.9063733987
 20
-258.4407478606
 10
607.3081500017
 20
-253.1077138702
 10
610.5425198364
 20
-247.6582174573
 10
613.599485651
 20
-242.109102703
 10
616.4695985394
 20
-236.477521603
 10
619.1439871471
 20
-230.7808810518
 10
621.6143850922
 20
-225.0367890388
 10
623.8731565162
 20
-219.2630002234
 10
625.9133196861
 20
-213.4773610557
 10
627.7285685744
 20
-207.6977546149
 10
629.3132923509
 20
-201.9420453334
 10
630.6625927252
 20
-196.2280237787
 10
631.7722990872
 20
-190.5733516638
 10
632.638981398
 20
-184.9955072564
 10
633.2599607923
 20
-179.5117313538
 10
633.6333178585
 20
-174.138973993
 10
633.7578985711
 20
-168.8938420591
  0
LWPOLYLINE
  5
FB
330
1F
100
AcDbEntity
  8
0
  6
Continuous
 62
     7
370
    25
100
AcDbPolyline
 90
       16
 70
   128
 43
0.0
 10
874.1742041746
 20
-307.683221069
 10
874.0496234619
 20
-302.5819269643
 10
873.6762663958
 20
-297.6402384965
 10
873.0552870014
 20
-292.8734301415
 10
872.1886046906
 20
-288.2962358307
 10
871.0788983286
 20
-283.9228034094
 10
869.7295979544
 20
-279.7666509067
 10
868.1448741779
 20
-275.8406247516
 10
866.3296252895
 20
-272.1568600661
 10
864.2894621196
 20
-268.7267431557
 10
862.0306906956
 20
-265.5608763152
 10
859.5602927505
 20
-262.6690450575
 10
856.8859041428
 20
-260.0601878674
 10
854.0157912544
 20
-257.742368573
 10
850.9588254398
 20
-255.7227514208
 10
850.5593988796
 20
-255.4889131315
  0
LWPOLYLINE
  5
FC
330
1F
100
AcDbEntity
  8
0
  6
Continuous
 62
     7
370
    25
100
AcDbPolyline
 90
       44
 70
   128
 43
0.0
 10
736.5686633591
 20
-452.9480537543
 10
737.7648585441
 20
-453.6102108977
 10
741.0842145032
 20
-455.1711135044
 10
744.5657825679
 20
-456.419977317
 10
748.198801411
 20
-457.3529421689
 10
751.9720415792
 20
-457.9671243193
 10
755.8738402037
 20
-458.2606253663
 10
759.8921370482
 20
-458.232538115
 10
764.0145117878
 20
-457.8829493816
 10
768.2282223981
 20
-457.2129397247
 10
772.5202445413
 20
-456.2245801059
 10
776.8773118228
 20
-454.9209254879
 10
781.2859567974
 20
-453.3060053927
 10
785.7325525961
 20
-451.3848114455
 10
790.2033550461
 20
-449.1632819469
 10
794.6845451532
 20
-446.6482835172
 10
799.1622718157
 20
-443.8475898724
 10
803.622694637
 20
-440.769857796
 10
808.0520267058
 20
-437.4246003816
 10
812.4365772106
 20
-433.8221576281
 10
816.7627937569
 20
-429.9736644795
 10
821.0173042573
 20
-425.8910164078
 10
825.1869582638
 20
-421.586832644
 10
829.2588676147
 20
-417.0744171735
 10
833.2204462716
 20
-412.3677176141
 10
837.0594492219
 20
-407.4812821042
 10
840.7640103274
 20
-402.430214336
 10
844.3226790021
 20
-397.2301268705
 10
847.7244556051
 20
-391.8970928801
 10
850.9588254398
 20
-386.4475964672
 10
854.0157912544
 20
-380.8984817129
 10
856.8859041428
 20
-375.2669006129
 10
859.5602927505
 20
-369.5702600617
 10
862.0306906956
 20
-363.8261680487
 10
864.2894621196
 20
-358.0523792332
 10
866.3296252895
 20
-352.2667400655
 10
868.1448741779
 20
-346.4871336248
 10
869.7295979544
 20
-340.7314243433
 10
871.0788983286
 20
-335.0174027885
 10
872.1886046906
 20
-329.3627306737
 10
873.0552870014
 20
-323.7848862663
 10
873.6762663958
 20
-318.3011103636
 10
874.0496234619
 20
-312.9283530028
 10
874.1742041746
 20
-307.683221069
  0
LWPOLYLINE
  5
FD
330
1F
100
AcDbEntity
  8
0
  6
Continuous
 62
     7
370
    25
100
AcDbPolyline
 90
      101
 70
   128
 43
0.0
 10
616.7873358227
 20
-178.690739401
 10
616.6617575888
 20
-174.1488422107
 10
616.2855184872
 20
-169.7698593563
 10
615.6601033616
 20
-165.5710726825
 10
614.7879804398
 20
-161.569052882
 10
613.6725915926
 20
-157.7795940987
 10
612.3183387502
 20
-154.2176515951
 10
610.7305665299
 20
-150.897282731
 10
608.9155411431
 20
-147.8315914854
 10
606.880425666
 20
-145.032676741
 10
604.6332517695
 20
-142.5115845356
 10
602.1828880224
 20
-140.2782644685
 10
599.5390048909
 20
-138.3415304335
 10
596.7120365738
 20
-136.7090258351
 10
593.7131398237
 20
-135.3871934232
 10
590.5541499159
 20
-134.3812498664
 10
587.2475339403
 20
-133.6951651643
 10
583.8063415996
 20
-133.3316469798
 10
580.2441537078
 20
-133.2921299531
 10
576.5750285931
 20
-133.5767700399
 10
572.8134466161
 20
-134.1844438957
 10
568.9742530223
 20
-135.1127533096
 10
565.0725993549
 20
-136.3580346682
 10
561.1238836584
 20
-137.9153734151
 10
557.1436897097
 20
-139.7786234457
 10
553.1477255159
 20
-141.9404313633
 10
549.1517613221
 20
-144.3922654997
 10
545.1715673734
 20
-147.1244495858
 10
541.2228516769
 20
-150.1262009391
 10
537.3211980095
 20
-153.3856730184
 10
533.4820044157
 20
-156.8900021766
 10
529.7204224387
 20
-160.6253584274
 10
526.051297324
 20
-164.5770000263
 10
522.4891094322
 20
-168.7293316491
 10
519.0479170915
 20
-173.06596594
 10
515.7413011159
 20
-177.5697881847
 10
512.5823112081
 20
-182.2230238543
 10
509.5834144579
 20
-187.0073087536
 10
506.7564461409
 20
-191.9037614957
 10
504.1125630094
 20
-196.8930580187
 10
501.6621992623
 20
-201.9555078486
 10
499.4150253658
 20
-207.0711318086
 10
497.3799098887
 20
-212.2197408683
 10
495.5648845019
 20
-217.3810158197
 10
493.9771122815
 20
-222.5345874686
 10
492.6228594391
 20
-227.6601170221
 10
491.5074705919
 20
-232.7373763568
 10
490.6353476702
 20
-237.7463278496
 10
490.0099325446
 20
-242.6672034574
 10
489.6336934429
 20
-247.4805827322
 10
489.5081152091
 20
-252.167469465
 10
489.6336934429
 20
-256.7093666553
 10
490.0099325446
 20
-261.0883495097
 10
490.6353476702
 20
-265.2871361836
 10
491.5074705919
 20
-269.289155984
 10
492.6228594391
 20
-273.0786147674
 10
493.9771122815
 20
-276.640557271
 10
495.5648845019
 20
-279.960926135
 10
497.3799098887
 20
-283.0266173807
 10
499.4150253658
 20
-285.8255321251
 10
501.6621992623
 20
-288.3466243304
 10
504.1125630094
 20
-290.5799443976
 10
506.7564461409
 20
-292.5166784325
 10
509.5834144579
 20
-294.1491830309
 10
512.5823112081
 20
-295.4710154428
 10
515.7413011159
 20
-296.4769589996
 10
519.0479170915
 20
-297.1630437017
 10
522.4891094322
 20
-297.5265618862
 10
526.051297324
 20
-297.5660789129
 10
529.7204224387
 20
-297.2814388262
 10
533.4820044157
 20
-296.6737649703
 10
537.3211980095
 20
-295.7454555565
 10
541.2228516769
 20
-294.5001741978
 10
545.1715673734
 20
-292.9428354509
 10
549.1517613221
 20
-291.0795854203
 10
553.1477255159
 20
-288.9177775027
 10
557.1436897097
 20
-286.4659433663
 10
561.1238836584
 20
-283.7337592803
 10
565.0725993549
 20
-280.7320079269
 10
568.9742530223
 20
-277.4725358476
 10
572.8134466161
 20
-273.9682066894
 10
576.5750285931
 20
-270.2328504386
 10
580.2441537078
 20
-266.2812088397
 10
583.8063415996
 20
-262.1288772169
 10
587.2475339403
 20
-257.792242926
 10
590.5541499159
 20
-253.2884206813
 10
593.7131398237
 20
-248.6351850117
 10
596.7120365738
 20
-243.8509001125
 10
599.5390048909
 20
-238.9544473703
 10
602.1828880224
 20
-233.9651508474
 10
604.6332517695
 20
-228.9027010175
 10
606.880425666
 20
-223.7870770574
 10
608.9155411431
 20
-218.6384679978
 10
610.7305665299
 20
-213.4771930464
 10
612.3183387502
 20
-208.3236213974
 10
613.6725915926
 20
-203.1980918439
 10
614.7879804398
 20
-198.1208325092
 10
615.6601033616
 20
-193.1118810164
 10
616.2855184872
 20
-188.1910054087
 10
616.6617575888
 20
-183.3776261339
 10
616.7873358227
 20
-178.690739401
  0
LWPOLYLINE
  5
FE
330
1F
100
AcDbEntity
  8
0
  6
Continuous
 62
     7
370
    25
100
AcDbPolyline
 90
       76
 70
   128
 43
0.0
 10
855.8601385418
 20
-221.1847816214
 10
855.7334144762
 20
-217.6201476573
 10
855.3541311574
 20
-213.9342045475
 10
854.7249489856
 20
-210.1528065344
 10
853.8502812215
 20
-206.3024774082
 10
852.7362630311
 20
-202.4102244613
 10
851.3907084516
 20
-198.5033490514
 10
849.8230555815
 20
-194.6092551026
 10
848.0443003794
 20
-190.755256886
 10
846.066919535
 20
-186.9683874299
 10
843.9047829542
 20
-183.2752089027
 10
841.5730564716
 20
-179.7016262983
 10
839.0880954731
 20
-176.2727057311
 10
836.4673301747
 20
-173.012498615
 10
833.7291433619
 20
-169.9438729606
 10
830.8927414479
 20
-167.0883529721
 10
827.9780197541
 20
-164.4659680704
 10
825.005422959
 20
-162.0951124015
 10
821.9958016932
 20
-159.9924158144
 10
818.9702662877
 20
-158.1726272149
 10
815.9500386993
 20
-156.6485111126
 10
812.9563036546
 20
-155.4307580867
 10
810.010060054
 20
-154.5279097999
 10
807.1319736793
 20
-153.9462990841
 10
804.3422322387
 20
-153.6900055207
 10
801.6604037639
 20
-153.7608268248
 10
799.1052993548
 20
-154.1582662359
 10
796.6948412329
 20
-154.8795360021
 10
794.4459370301
 20
-155.9195769341
 10
792.3743611935
 20
-157.2710938922
 10
790.4946443392
 20
-158.9246069559
 10
788.8199713304
 20
-160.8685179191
 10
787.3620887949
 20
-163.0891916432
 10
786.1312227313
 20
-165.5710516974
 10
785.1360067805
 20
-168.2966896168
 10
784.3834216676
 20
-171.2469870097
 10
783.8787462362
 20
-174.4012496596
 10
783.6255204219
 20
-177.7373526805
 10
783.6255204219
 20
-181.2318957066
 10
783.8787462362
 20
-184.8603670294
 10
784.3834216676
 20
-188.5973155296
 10
785.1360067805
 20
-192.4165291985
 10
786.1312227313
 20
-196.2912189963
 10
787.3620887949
 20
-200.1942067581
 10
788.8199713304
 20
-204.0981158289
 10
790.4946443392
 20
-207.9755630917
 10
792.3743611935
 20
-211.7993510398
 10
794.4459370301
 20
-215.5426585481
 10
796.6948412329
 20
-219.179229004
 10
799.1052993548
 20
-222.6835544786
 10
801.6604037639
 20
-226.0310546467
 10
804.3422322387
 20
-229.1982491997
 10
807.1319736793
 20
-232.1629225434
 10
810.010060054
 20
-234.9042796244
 10
812.9563036546
 20
-237.4030917925
 10
815.9500386993
 20
-239.6418316757
 10
818.9702662877
 20
-241.6047961223
 10
821.9958016932
 20
-243.2782163471
 10
825.005422959
 20
-244.6503545095
 10
827.9780197541
 20
-245.7115860462
 10
830.8927414479
 20
-246.4544671805
 10
833.7291433619
 20
-246.8737871349
 10
836.4673301747
 20
-246.9666046813
 10
839.0880954731
 20
-246.7322687713
 10
841.5730564716
 20
-246.1724231029
 10
843.9047829542
 20
-245.2909945913
 10
846.066919535
 20
-244.094165824
 10
848.0443003794
 20
-242.5903316951
 10
849.8230555815
 20
-240.7900405204
 10
851.3907084516
 20
-238.705920049
 10
852.7362630311
 20
-236.3525888886
 10
853.8502812215
 20
-233.7465539664
 10
854.7249489856
 20
-230.9060947449
 10
855.3541311574
 20
-227.8511350048
 10
855.7334144762
 20
-224.6031030935
 10
855.8601385418
 20
-221.1847816214
  0
LWPOLYLINE
  5
FF
330
1F
100
AcDbEntity
  8
0
  6
Continuous
 62
     7
370
    25
100
AcDbPolyline
 90
       84
 70
   128
 43
0.0
 10
863.9211558474
 20
-225.8383078588
 10
863.7945857346
 20
-221.9056181401
 10
863.4156003786
 20
-217.8493197703
 10
862.786370573
 20
-213.6926468593
 10
861.9105004892
 20
-209.459408453
 10
860.7930070318
 20
-205.1738521576
 10
859.440291102
 20
-200.8605252515
 10
857.8601009342
 20
-196.5441340806
 10
856.0614877146
 20
-192.2494025426
 10
854.0547537369
 20
-188.0009304709
 10
851.8513933914
 20
-183.8230527288
 10
849.4640273268
 20
-179.7396998216
 10
846.9063301597
 20
-175.7742608249
 10
844.1929521478
 20
-171.9494494143
 10
841.3394352747
 20
-168.2871737632
 10
838.3621242265
 20
-164.8084110547
 10
835.2780727714
 20
-161.5330873267
 10
832.1049460767
 20
-158.4799633369
 10
828.8609195249
 20
-155.666527103
 10
825.5645746063
 20
-153.1088937329
 10
822.234792486
 20
-150.8217131191
 10
818.8906458544
 20
-148.8180860248
 10
815.5512896808
 20
-147.1094890448
 10
812.2358514946
 20
-145.7057088676
 10
808.9633218258
 20
-144.6147862192
 10
805.7524454278
 20
-143.8429698055
 10
802.62161391
 20
-143.3946805212
 10
799.5887603916
 20
-143.2724861266
 10
796.671256783
 20
-143.4770865402
 10
793.8858142807
 20
-144.0073098293
 10
791.2483876471
 20
-144.860118923
 10
788.774083823
 20
-146.030629008
 10
786.4770753968
 20
-147.5121355085
 10
784.3705194246
 20
-149.2961524895
 10
782.4664820684
 20
-151.3724612633
 10
780.7758694816
 20
-153.7291689211
 10
779.30836534
 20
-156.3527764551
 10
778.0723753745
 20
-159.2282560787
 10
777.0749792237
 20
-162.3391373052
 10
776.3218898825
 20
-165.6676012886
 10
775.8174209782
 20
-169.1945828886
 10
775.5644620632
 20
-172.899879874
 10
775.5644620632
 20
-176.7622686393
 10
775.8174209782
 20
-180.7596257713
 10
776.3218898825
 20
-184.8690547704
 10
777.0749792238
 20
-189.0670171995
 10
778.0723753745
 20
-193.3294675098
 10
779.30836534
 20
-197.6319907721
 10
780.7758694816
 20
-201.9499425228
 10
782.4664820684
 20
-206.2585899252
 10
784.3705194246
 20
-210.5332534371
 10
786.4770753968
 20
-214.7494481732
 10
788.774083823
 20
-218.8830241518
 10
791.2483876471
 20
-222.910304624
 10
793.8858142807
 20
-226.8082216919
 10
796.671256783
 20
-230.5544484396
 10
799.5887603916
 20
-234.1275268196
 10
802.62161391
 20
-237.5069905625
 10
805.7524454278
 20
-240.6734824059
 10
808.9633218258
 20
-243.6088649714
 10
812.2358514946
 20
-246.2963246534
 10
815.5512896808
 20
-248.7204679263
 10
818.8906458544
 20
-250.867409517
 10
822.234792486
 20
-252.7248519383
 10
825.5645746063
 20
-254.2821559284
 10
828.8609195249
 20
-255.530401391
 10
832.1049460767
 20
-256.4624384892
 10
835.2780727714
 20
-257.0729285988
 10
838.3621242265
 20
-257.3583748877
 10
841.3394352747
 20
-257.3171423456
 10
844.1929521478
 20
-256.9494671487
 10
846.9063301597
 20
-256.2574553071
 10
849.4640273268
 20
-255.2450706021
 10
851.8513933914
 20
-253.9181118815
 10
854.0547537369
 20
-252.2841798448
 10
856.0614877146
 20
-250.3526335067
 10
857.8601009342
 20
-248.1345365897
 10
859.440291102
 20
-245.642594152
 10
860.7930070318
 20
-242.8910798143
 10
861.9105004892
 20
-239.8957540015
 10
862.786370573
 20
-236.6737736687
 10
863.4156003786
 20
-233.2435940274
 10
863.7945857346
 20
-229.6248628359
 10
863.9211558474
 20
-225.8383078588
  0
LWPOLYLINE
  5
100
330
1F
100
AcDbEntity
  8
0
  6
Continuous
 62
     7
370
    25
100
AcDbPolyline
 90
       16
 70
   128
 43
0.0
 10
565.8045797654
 20
-113.360972147
 10
565.7605652346
 20
-112.9085221333
 10
565.4117630775
 20
-112.0263098389
 10
564.73164916
 20
-111.2110230856
 10
563.7543272337
 20
-110.5035437557
 10
562.528804301
 20
-109.9393478169
 10
561.1165331991
 20
-109.5467264094
 10
559.5883310981
 20
-109.3453672102
 10
558.0208284327
 20
-109.3453672102
 10
556.4926263317
 20
-109.5467264094
 10
555.0803552298
 20
-109.9393478169
 10
553.8548322971
 20
-110.5035437557
 10
552.8775103708
 20
-111.2110230856
 10
552.1973964532
 20
-112.0263098389
 10
551.8485942961
 20
-112.9085221333
 10
551.8045797654
 20
-113.360972147
  0
ENDSEC
  0
SECTION
  2
OBJECTS
  0
DICTIONARY
  5
C
330
0
100
AcDbDictionary
281
     1
  3
ACAD_GROUP
350
D
  3
ACAD_LAYOUT
350
1A
  3
ACAD_MLINESTYLE
350
17
  3
ACAD_PLOTSETTINGS
350
19
  3
ACAD_PLOTSTYLENAME
350
E
  3
ACAD_SCALELIST
350
47
  3
DWGPROPS
350
101
  0
DICTIONARY
  5
D
102
{ACAD_REACTORS
330
C
102
}
330
C
100
AcDbDictionary
281
     1
  0
DICTIONARY
  5
1A
102
{ACAD_REACTORS
330
C
102
}
330
C
100
AcDbDictionary
281
     1
  3
Layout1
350
1E
  3
Layout2
350
26
  3
Model
350
22
  0
DICTIONARY
  5
17
102
{ACAD_REACTORS
330
C
102
}
330
C
100
AcDbDictionary
281
     1
  3
Standard
350
18
  0
DICTIONARY
  5
19
102
{ACAD_REACTORS
330
C
102
}
330
C
100
AcDbDictionary
281
     1
  0
ACDBDICTIONARYWDFLT
  5
E
102
{ACAD_REACTORS
330
C
102
}
330
C
100
AcDbDictionary
281
     1
  3
Normal
350
F
100
AcDbDictionaryWithDefault
340
F
  0
DICTIONARY
  5
47
102
{ACAD_REACTORS
330
C
102
}
330
C
100
AcDbDictionary
281
     1
  3
A0
350
48
  3
A1
350
49
  3
A2
350
4A
  3
A3
350
4B
  3
A4
350
4C
  3
A5
350
4D
  3
A6
350
4E
  3
A7
350
4F
  3
A8
350
50
  3
A9
350
51
  3
B0
350
52
  3
B1
350
53
  3
B2
350
54
  3
B3
350
55
  3
B4
350
56
  3
B5
350
57
  3
B6
350
58
  3
B7
350
59
  3
B8
350
5A
  3
B9
350
5B
  3
C0
350
5C
  3
C1
350
5D
  3
C2
350
5E
  3
C3
350
5F
  3
C4
350
60
  3
C5
350
61
  3
C6
350
62
  3
C7
350
63
  3
C8
350
64
  3
C9
350
65
  3
D0
350
66
  3
D1
350
67
  3
D2
350
68
  0
XRECORD
  5
101
102
{ACAD_REACTORS
330
C
102
}
330
C
100
AcDbXrecord
280
     1
  1
DWGPROPS COOKIE
  2

  3

  4

  6

  7

  8
b.kav
  9

300
=
301
=
302
=
303
=
304
=
305
=
306
=
307
=
308
=
309
=
 40
0.0
 41
2459741.481186192
 42
2459741.481186366
  1

 90
        0
  0
LAYOUT
  5
1E
102
{ACAD_REACTORS
330
1A
102
}
330
1A
100
AcDbPlotSettings
  1

  2
none_device
  4

  6

 40
0.0
 41
0.0
 42
0.0
 43
0.0
 44
0.0
 45
0.0
 46
0.0
 47
0.0
 48
0.0
 49
0.0
140
0.0
141
0.0
142
1.0
143
1.0
 70
   688
 72
     1
 73
     0
 74
     5
  7

 75
    16
147
1.0
148
0.0
149
0.0
100
AcDbLayout
  1
Layout1
 70
     1
 71
     1
 10
0.0
 20
0.0
 11
420.0
 21
297.0
 12
0.0
 22
0.0
 32
0.0
 14
1.0000000000E+20
 24
1.0000000000E+20
 34
1.0000000000E+20
 15
-1.0000000000E+20
 25
-1.0000000000E+20
 35
-1.0000000000E+20
146
0.0
 13
0.0
 23
0.0
 33
0.0
 16
1.0
 26
0.0
 36
0.0
 17
0.0
 27
1.0
 37
0.0
 76
     0
330
1B
  0
LAYOUT
  5
26
102
{ACAD_REACTORS
330
1A
102
}
330
1A
100
AcDbPlotSettings
  1

  2
none_device
  4

  6

 40
0.0
 41
0.0
 42
0.0
 43
0.0
 44
0.0
 45
0.0
 46
0.0
 47
0.0
 48
0.0
 49
0.0
140
0.0
141
0.0
142
1.0
143
1.0
 70
   688
 72
     1
 73
     0
 74
     5
  7

 75
    16
147
1.0
148
0.0
149
0.0
100
AcDbLayout
  1
Layout2
 70
     1
 71
     2
 10
0.0
 20
0.0
 11
0.0
 21
0.0
 12
0.0
 22
0.0
 32
0.0
 14
0.0
 24
0.0
 34
0.0
 15
0.0
 25
0.0
 35
0.0
146
0.0
 13
0.0
 23
0.0
 33
0.0
 16
1.0
 26
0.0
 36
0.0
 17
0.0
 27
1.0
 37
0.0
 76
     0
330
23
  0
LAYOUT
  5
22
102
{ACAD_REACTORS
330
1A
102
}
330
1A
100
AcDbPlotSettings
  1

  2
none_device
  4
Letter_(8.50_x_11.00_Inches)
  6

 40
6.35
 41
6.35
 42
6.35000508
 43
6.35000508
 44
215.9
 45
279.4
 46
0.0
 47
0.0
 48
0.0
 49
0.0
140
0.0
141
0.0
142
1.0
143
1.0
 70
  1712
 72
     1
 73
     0
 74
     0
  7

 75
     0
147
1.0
148
0.0
149
0.0
100
AcDbLayout
  1
Model
 70
     1
 71
     0
 10
0.0
 20
0.0
 11
279.4
 21
215.9
 12
0.0
 22
0.0
 32
0.0
 14
0.0
 24
0.0
 34
0.0
 15
279.4
 25
215.9
 35
0.0
146
0.0
 13
0.0
 23
0.0
 33
0.0
 16
1.0
 26
0.0
 36
0.0
 17
0.0
 27
1.0
 37
0.0
 76
     0
330
1F
331
29
  0
MLINESTYLE
  5
18
102
{ACAD_REACTORS
330
17
102
}
330
17
100
AcDbMlineStyle
  2
Standard
 70
     0
  3

 62
   256
 51
90.0
 52
90.0
 71
     2
 49
0.5
 62
   256
  6
BYLAYER
 49
-0.5
 62
   256
  6
BYLAYER
  0
ACDBPLACEHOLDER
  5
F
102
{ACAD_REACTORS
330
E
102
}
330
E
  0
SCALE
  5
48
102
{ACAD_REACTORS
330
47
102
}
330
47
100
AcDbScale
 70
     0
300
1:1
140
1.0
141
1.0
290
     1
  0
SCALE
  5
49
102
{ACAD_REACTORS
330
47
102
}
330
47
100
AcDbScale
 70
     0
300
1:2
140
1.0
141
2.0
290
     0
  0
SCALE
  5
4A
102
{ACAD_REACTORS
330
47
102
}
330
47
100
AcDbScale
 70
     0
300
1:4
140
1.0
141
4.0
290
     0
  0
SCALE
  5
4B
102
{ACAD_REACTORS
330
47
102
}
330
47
100
AcDbScale
 70
     0
300
1:5
140
1.0
141
5.0
290
     0
  0
SCALE
  5
4C
102
{ACAD_REACTORS
330
47
102
}
330
47
100
AcDbScale
 70
     0
300
1:8
140
1.0
141
8.0
290
     0
  0
SCALE
  5
4D
102
{ACAD_REACTORS
330
47
102
}
330
47
100
AcDbScale
 70
     0
300
1:10
140
1.0
141
10.0
290
     0
  0
SCALE
  5
4E
102
{ACAD_REACTORS
330
47
102
}
330
47
100
AcDbScale
 70
     0
300
1:16
140
1.0
141
16.0
290
     0
  0
SCALE
  5
4F
102
{ACAD_REACTORS
330
47
102
}
330
47
100
AcDbScale
 70
     0
300
1:20
140
1.0
141
20.0
290
     0
  0
SCALE
  5
50
102
{ACAD_REACTORS
330
47
102
}
330
47
100
AcDbScale
 70
     0
300
1:30
140
1.0
141
30.0
290
     0
  0
SCALE
  5
51
102
{ACAD_REACTORS
330
47
102
}
330
47
100
AcDbScale
 70
     0
300
1:40
140
1.0
141
40.0
290
     0
  0
SCALE
  5
52
102
{ACAD_REACTORS
330
47
102
}
330
47
100
AcDbScale
 70
     0
300
1:50
140
1.0
141
50.0
290
     0
  0
SCALE
  5
53
102
{ACAD_REACTORS
330
47
102
}
330
47
100
AcDbScale
 70
     0
300
1:100
140
1.0
141
100.0
290
     0
  0
SCALE
  5
54
102
{ACAD_REACTORS
330
47
102
}
330
47
100
AcDbScale
 70
     0
300
2:1
140
2.0
141
1.0
290
     0
  0
SCALE
  5
55
102
{ACAD_REACTORS
330
47
102
}
330
47
100
AcDbScale
 70
     0
300
4:1
140
4.0
141
1.0
290
     0
  0
SCALE
  5
56
102
{ACAD_REACTORS
330
47
102
}
330
47
100
AcDbScale
 70
     0
300
8:1
140
8.0
141
1.0
290
     0
  0
SCALE
  5
57
102
{ACAD_REACTORS
330
47
102
}
330
47
100
AcDbScale
 70
     0
300
10:1
140
10.0
141
1.0
290
     0
  0
SCALE
  5
58
102
{ACAD_REACTORS
330
47
102
}
330
47
100
AcDbScale
 70
     0
300
100:1
140
100.0
141
1.0
290
     0
  0
SCALE
  5
59
102
{ACAD_REACTORS
330
47
102
}
330
47
100
AcDbScale
 70
     0
300
1/128" = 1'-0"
140
0.0078125
141
12.0
290
     0
  0
SCALE
  5
5A
102
{ACAD_REACTORS
330
47
102
}
330
47
100
AcDbScale
 70
     0
300
1/64" = 1'-0"
140
0.015625
141
12.0
290
     0
  0
SCALE
  5
5B
102
{ACAD_REACTORS
330
47
102
}
330
47
100
AcDbScale
 70
     0
300
1/32" = 1'-0"
140
0.03125
141
12.0
290
     0
  0
SCALE
  5
5C
102
{ACAD_REACTORS
330
47
102
}
330
47
100
AcDbScale
 70
     0
300
1/16" = 1'-0"
140
0.0625
141
12.0
290
     0
  0
SCALE
  5
5D
102
{ACAD_REACTORS
330
47
102
}
330
47
100
AcDbScale
 70
     0
300
3/32" = 1'-0"
140
0.09375
141
12.0
290
     0
  0
SCALE
  5
5E
102
{ACAD_REACTORS
330
47
102
}
330
47
100
AcDbScale
 70
     0
300
1/8" = 1'-0"
140
0.125
141
12.0
290
     0
  0
SCALE
  5
5F
102
{ACAD_REACTORS
330
47
102
}
330
47
100
AcDbScale
 70
     0
300
3/16" = 1'-0"
140
0.1875
141
12.0
290
     0
  0
SCALE
  5
60
102
{ACAD_REACTORS
330
47
102
}
330
47
100
AcDbScale
 70
     0
300
1/4" = 1'-0"
140
0.25
141
12.0
290
     0
  0
SCALE
  5
61
102
{ACAD_REACTORS
330
47
102
}
330
47
100
AcDbScale
 70
     0
300
3/8" = 1'-0"
140
0.375
141
12.0
290
     0
  0
SCALE
  5
62
102
{ACAD_REACTORS
330
47
102
}
330
47
100
AcDbScale
 70
     0
300
1/2" = 1'-0"
140
0.5
141
12.0
290
     0
  0
SCALE
  5
63
102
{ACAD_REACTORS
330
47
102
}
330
47
100
AcDbScale
 70
     0
300
3/4" = 1'-0"
140
0.75
141
12.0
290
     0
  0
SCALE
  5
64
102
{ACAD_REACTORS
330
47
102
}
330
47
100
AcDbScale
 70
     0
300
1" = 1'-0"
140
1.0
141
12.0
290
     0
  0
SCALE
  5
65
102
{ACAD_REACTORS
330
47
102
}
330
47
100
AcDbScale
 70
     0
300
1-1/2" = 1'-0"
140
1.5
141
12.0
290
     0
  0
SCALE
  5
66
102
{ACAD_REACTORS
330
47
102
}
330
47
100
AcDbScale
 70
     0
300
3" = 1'-0"
140
3.0
141
12.0
290
     0
  0
SCALE
  5
67
102
{ACAD_REACTORS
330
47
102
}
330
47
100
AcDbScale
 70
     0
300
6" = 1'-0"
140
6.0
141
12.0
290
     0
  0
SCALE
  5
68
102
{ACAD_REACTORS
330
47
102
}
330
47
100
AcDbScale
 70
     0
300
1'-0" = 1'-0"
140
12.0
141
12.0
290
     0
  0
ENDSEC
  0
EOF
